Ads

Cloud Tops (Legend of Zelda: The Minish Cap) Guitar Tab

Submitted: Sep 09, 2012 by JordanVS

5
Average: 5 (2 votes)
Download | Listen
Game: Legend of Zelda: The Minish Cap
Composer(s): Mitsuhiko Takano
Style: Arrangement, Fingerstyle
Series: Legend of Zelda

AutoScroll: Slow | Medium | Fast
Cloud Tops                               
The Legend Of Zelda:The Minish Cap
Mitsuhiko Takano & Koji Kondo
JordanVS


*Capo on the 1st fret


                   |--3--|                     |--3--|   
     H        Q    E  E  E     E.  S Q.     E  E  E  E   
E||--5--------L----5--5--5--|--5---3-5------L--5--5--5--|
B||--5--------L----5--5--5--|--3-----3------L--3--3--3--|
G||--6--------L----6--6--6--|--4-----4------L--4--4--4--|
D||-------------------------|---------------------------|
A||-------------------------|---------------------------|
E||--5--------5-------------|--3------------3-----------|


                     |---3---|                                
   E.  S  Q.     E   E   E   E     E  S S E  S S E  S S Q     
--------------------------------|--5--0-0-0--0-0-0--0-0-0----|
--10---8-10------L--10--10--10--|-----0-0-0--0-0-0--0-0-0----|
--10-----10------L--10--10--10--|-----1-1-1--1-1-1--1-1-1----|
--10----------------10--10--10--|----------------------------|
---8-------------8--------------|----------------------------|
--------------------------------|--0------0------0------0----|


*Segno

                  |--3--|                     |--3--|   
  Q    E  E  Q    E  E  E     Q    E  E  Q    E  E  E   
------------------0-----L--|------------------2-----L--|
---------------------------|--4----0-----4-------------|
--2----------2-------------|------------------2-----L--|
-------2-------------------|---------------------------|
--0-------0-------0--0--0--|--0-------0-------0--0--0--|
---------------------------|---------------------------|


                      |--3--|                       |--3--|   
  Q      E  E  Q      E  E  E     Q    E  E    Q    E  E  E   
--0------------4----0g0-----L--|-------7---------------------|
--0----0g0---------------------|-------------9g9----------L--|
--1----------------------------|-----------------------------|
-------------------------------|-----------------------------|
-------------------------------|-----------------------------|
--0---------0---------0--0--0--|--0-------0---------0--0--0--|


  ^                                                    
                                             |--3--|   
  Q    E  Q.     S  S S  S    Q    E  Q.     E  E  E   
--4-------------------0h-2-|--2-----------------------|
--2----2--L------2h-3------|-------0--L---------------|
--2------------------------|--2-----------------------|
--2------------------------|--------------------------|
--0-------0------0---------|--0-------0------0--0--0--|
---------------------------|--------------------------|


                  |--3--|                      |--3--|   
  Q    E  E  Q    E  E  E     Q      E  Q.     E  E  E   
--2---------------2--------|--0-------------------------|
-------0-----3-------------|-------2g2------------------|
---------------------------|----------------------------|
--0------------------------|----------------------------|
---------------------------|--0---------0------0--0--0--|
--3-------3-------3--3--3--|----------------------------|


  E  E  E  E  E  E  E  E     E  E    E  E  E  E  E  E   
--------------------------|----------------------------|
--0-----------0-----3-----|--2-------------------------|
--------0-----------0-----|--------2g2-----------2-----|
-----0-----0-----0-----0--|-----2-------2-----2-----2--|
--------------------------|--0-------------0-----------|
--3-----------3-----------|----------------------------|


                             |--3--|                     
  E  E  E  E  E  E  E  E     E  E  E  E  E  E  E  E  E   
--------------------------|-----------0-----------------|
--0-----------0-----3-----|--3--2--3--------------------|
--------0-----------0-----|-----------0-----------0-----|
-----0-----0-----0-----0--|--------------0-----0-----0--|
--------------------------|-----------------------------|
--3-----------3-----------|--3--------------3-----------|


  E  E  E  E  E  E  E  E     E  E  E  E  E  E  E  E   
--------------------1-----|--0-----------0-----3-----|
--3-----------3-----------|--------1-----------1-----|
--------3-----------3-----|-----0-----0-----0-----0--|
-----3-----3-----3-----3--|--------------------------|
--1-----------1-----------|--3-----------3-----------|
--------------------------|--------------------------|


                             ^    ^    ^  v  ^    ^    ^     
                             |------3-----|  |----3----|     
  E  E  E  E  E  E  E  E     Q    Q    E  E  Q    Q    Q     
--2-----------------------|--2----2----2--2--2----2----2----|
--------3-----------3-----|--3----3----3--3--3----3----3----|
-----2-----2-----2-----2--|--2----2----2--2--2----2----2----|
--0-----------0-----------|--0----0----0--0--0----0----0----|
--------------------------|---------------------------------|
--------------------------|---------------------------------|


  Q.     Q.     S S E     Q.     Q.     S S E     Q.     Q.     Q     
-----------------------|--0------0-------------|----------------1----|
--3------3-------------|--1------1-------------|--3------3------3----|
--3------3-------------|----------------0-0-0--|--3------3-----------|
----------------3-3-3--|----------------2-2-2--|---------------------|
----------------5-5-5--|--3------3-------------|--1------1-----------|
--6------6-------------|-----------------------|---------------------|


  Q.     Q.     S S E     E  E  E  E  Q    S S E   
--0------0-------------|--------------------------|
--1------1-------------|--3--------3--------------|
----------------0-0-0--|--3--------3--------------|
----------------2-2-2--|--------3----------3-3-3--|
--3------3-------------|-----5-------------5-5-5--|
-----------------------|--6-----------6-----------|


  E  E  E  E  Q    S S E     E  E  E  E  Q    Q     
--0--------0--------------|-------------------1----|
--1--------1--------------|--3--------3-------3----|
--------0----------0-0-0--|--3--------3------------|
-----2-------------2-2-2--|-----0--3---------------|
--3-----------3-----------|--1-----------1---------|
--------------------------|------------------------|


                             ^            ^       ^        ^         
  E  E  E  E  Q    S S E     H.           Q       H        H         
--0--------0--------------|--5-----------------|--3-----------------|
--1--------1--------------|--3------------6----|-----------5--------|
--------0----------0-0-0--|--3------------3----|--5--------5--------|
-----2-------------2-2-2--|---------------3----|--5-----------------|
--3-----------3-----------|--------------------|--3-----------------|
--------------------------|--------------------|--------------------|


  ^                   ^                         ^            ^     
  W                   H.           S  S S  S    H.           Q     
-------------------|--0------------0h-1-3s-5-|--5-----------------|
--3----------------|--1----------------------|--3------------6----|
--3----------------|--0----------------------|--3------------3----|
--3----------------|--2----------------------|--3------------3----|
--1----------------|--3----------------------|--------------------|
-------------------|-------------------------|--------------------|


  ^        ^           ^                   ^                 
  H        H           W                   W                 
--3--------8--------|--5----------------|-------------------|
--5--------8--------|--3----------------|-------------------|
--5--------9--------|--3----------------|--0----------------|
--5-----------------|--3----------------|--2----------------|
--3-----------------|-------------------|--3----------------|
-----------8--------|-------------------|-------------------|


  E  E  E  E  E  E  E  E     E  E  E  E  E  E  E  E   
--5-----------------------|--3-----------0-----------|
--------3-----------6-----|-----------1-----1--------|
-----3-----3-----3-----3--|--------0-----------0-----|
--3-----------3-----------|-----2-----------------2--|
--------------------------|--3-----------------------|
--6-----------------------|--------------------------|


  E  E  E  E  E  E  E  E     E  E  E  E  E  E  S  S S  S  
--------------------------|--0-----------------0h-1-3s-5-|
--3-----------3-----------|-----------1------------------|
-----------3-----3--------|--------0-----0---------------|
--------3-----------3-----|-----2-----------2------------|
-----5-----------------5--|--3---------------------------|
--6-----------------------|------------------------------|


  E  E  E  E  E  E  E  E     E   E   E  E  E  E  Q     
--5-----------------------|----------------8----------|
--------3-----------6-----|--8----------------8-------|
-----3-----3-----3-----3--|-------------9--------9----|
--3-----------3-----------|---------10----------------|
--------------------------|-----10--------------------|
--------------------------|--8------------------------|


				  		*Da Segno

                                  |--3--|       |--3--|   
  E  E  E  E  E  E  E  E     Q    E  E  E  Q    E  E  E   
--5-----------------------|--2----2--2--2--4----4--4--4--|
--------3-----3-----------|--3----3--3--3--5----5--5--5--|
-----2-----2-----2--------|--2----2--2--2--4----4--4--4--|
--0-----------------4-----|------------------------------|
-----------------------5--|--5-------------7-------------|
--------------------------|------------------------------|


  W                  
--5----------------||
--5----------------||
--6----------------||
-------------------||
--0----------------||
-------------------||




Duration Legend
---------------
W - whole
H - half
Q - quarter
E - 8th
S - 16th
. - note dotted
|-n-|  - n-tuplets


Tablature Legend
----------------
L - tied note
g - grace note
h - hammer on
p - pull off
/ -  slide into from below or out of upwards
\ -  slide into from above or out of downwards
^ - brush up
v - brush down
Login or Register to remove this ad.

2 comments on Cloud Tops

5/5!

5

5/5!

wtf

5
  E  E  E  E  E  E  E  E     E  E  E  E  E  E  E  E   
--5-----------------------|--3-----------0-----------|
--------3-----------6-----|-----------1-----1--------|
-----3-----3-----3-----3--|--------0-----------0-----|
--3-----------3-----------|-----2-----------------2--|
--------------------------|--3-----------------------|
--6-----------------------|--------------------------|

*crack* my fingers are gone

except for the chirurgical operation you owe me, this tab is awesome.