Ads

The Stone Tower (Legend of Zelda: Majora's Mask) Guitar Tab

Submitted: Feb 23, 2012 by N0Stars

5
Average: 5 (5 votes)
Download | Listen
Game: Legend of Zelda: Majora's Mask
Composer(s): Koji Kondo, Toru Minegishi
Style: Arrangement, Fingerstyle, Percussion
Series: Legend of Zelda

AutoScroll: Slow | Medium | Fast
#----------------------------------PLEASE NOTE---------------------------------#
#This file is the author's own work and represents their interpretation of the #
#song. You may only use this file for private study, scholarship, or research. #
#------------------------------------------------------------------------------##


The Legend of Zelda: Majora's Mask - The Stone Tower Temple

Composed by Koji Kondo

Arranged for Guitar by NorthStar

Gtr I (D A D G B E), Capo on 7th fret

Suggested Percussive Effects:

6th String = Strike thumb near sound hole
5th String = Strike near the edge of the gutar body with fingertips
4th String = Strike the 6th string with fingertips

REPEAT THE PATTERN FOUND IN THE INTRO IN ALL OF THE PERCUSSIVE PORTIONS
OF THE TAB, WITH THE EXCEPTION OF MEASURES 9-12. STRIKE THE THUMB
NEAR THE SOUND HOLE ON EACH MARKED BEAT FOR THESE MEASURES.

                                 $
 4/4
  Gtr I
  Q  E Q  E Q    Q  E Q  E E E   Q  E Q  E Q    Q  E Q  E E E
|--------------|---------------|--------------|----------------|
|--------------|---------------|--------------|----------------|
|--------------|---------------|--------------|----------------|
|-----------x--|-----------x-x-|-----------x--|-----------x-x--|
|------x--x----|------x--x-----|------x--x----|------x--x------|
|-x--x---------|-x--x----------|-x--x---------|-x--x-----------|

{Bracketed} notes are optional

  Q   E   E  +E   E   Q     Q   E   E  E  E   E   E
|-------------------------|--------------------------|
|-3--(3)-(3)-(3)-(3)-(3)--|-4--(4)-(4)-1-(1)-(1)-(1)-|
|-2--(2)-(2)-(2)-(2)-(2)--|-3--(3)-(3)-0-(0)-(0)-(0)-|
|-0--(0)-(0)-(0)-(0)-(0)--|-1--(1)-(1)---------------|
|{0}----------------------|{1}---------3-(3)-(3)-(3)-| 
|-x---x---x-------x---x---|-x---x---x-----x---x---x--|


  Q   E   E  +E   E   Q     Q   E   E  E  E   E   E
|-------------------------|--------------------------|
|-3--(3)-(3)-(3)-(3)-(3)--|-4--(4)-(4)-1-(1)-(1)-(1)-|
|-2--(2)-(2)-(2)-(2)-(2)--|-3--(3)-(3)-0-(0)-(0)-(0)-|
|-0--(0)-(0)-(0)-(0)-(0)--|-1--(1)-(1)---------------|
|{0}----------------------|{1}---------3-(3)-(3)-(3)-|
|-x---x---x-------x---x---|-x---x---x-----x---x---x--|


  E E E E E E Q    E E E E E E Q    E E E E E E Q    E E E E E E Q
|-x---x---x------|-x---x---x------|-x---x---x------|-x---x---x------||
|----------------|----------------|----------------|----------------||
|---2---2---2-3--|---2---2---2-0--|---2---2---2-3--|---2---2---2-0--||
|-0---0---0------|-0---0---0------|-0---0---0------|-0---0---0------||
|-0---0---0------|-0---0---0------|-0---0---0------|-0---0---0------||
|-0---0---0------|-0---0---0------|-0---0---0------|-0---0---0------||


                        |-3-|                                  |-3-|
  E E E E E E E E   E E S S S E E E Q    E E E E E E E E   E E S S S E E E Q
|-----1---0-------|---1-0h1p0----------|-----1---0-------|---1-0h1p0----------|
|-3-------------1-|-3---------1-3------|-3-------------1-|-3---------1-3------|
|-----------------|-----------------2--|-----------------|--------------------|
|-----------------|--------------------|-----------------|--------------------|
|---0---0---0-1---|---0-------0---0----|---0---0---0-1---|---0-------0---0----|
|-0---0---0-------|-0---0-------0---5--|-0---0---0-------|-0---0-------0---5--|


          |-3-|             |-3-|
  E E E E S S S E E E   E E S S S E E E Q
|-----1---0h1p0-------|---1-0h1p0----------|
|-3-----------------1-|-3---------1-3------|
|-2-------2-----------|-----------------2--|
|-0-------------------|--------------------|
|---0---0-------0-1---|---0-----------0----|
|-0---0---0-----------|-0---0-------0---5--|


          |-3-|             |-3-|
  E E E E S S S E E E   E E S S S E E E Q
|-----1---0h1p0-------|---1-0h1p0-----------|
|-3-----------------1-|-3---------1-3-------|
|-2-------2-----------|---------------------|
|-0-------------------|---------------------|
|---0---0-------0-1---|---0-------0---0-----|
|-0---0---0-----------|-0---0-------0---5---|


  Q   E   E  +E   E   Q     Q   E   E  E  E   E   E
|-------------------------|--------------------------|
|-3--(3)-(3)-(3)-(3)-(3)--|-4--(4)-(4)-1-(1)-(1)-(1)-|
|-2--(2)-(2)-(2)-(2)-(2)--|-3--(3)-(3)-0-(0)-(0)-(0)-|
|-0--(0)-(0)-(0)-(0)-(0)--|-1--(1)-(1)---------------|
|{0}----------------------|{1}---------3-(3)-(3)-(3)-|
|-x---x---x-------x---x---|-x---x---x-----x---x---x--|


  Q   E   E  +E   E   Q     Q   E   E  E  E   E   E
|-------------------------|--------------------------|
|-3--(3)-(3)-(3)-(3)-(3)--|-4--(4)-(4)-3-(3)-(3)-(3)-|
|-2--(2)-(2)-(2)-(2)-(2)--|-3--(3)-(3)-2-(2)-(2)-(2)-|
|-0--(0)-(0)-(0)-(0)-(0)--|-1--(1)-(1)-0-(0)-(0)-(0)-|
|{0}----------------------|{1}-----------------------|
|-x---x---x-------x---x---|-x---x---x-----x---x---x--|


  E E E E E E E E   E E E E E E Q    E E E E E E E E   E E E E E E Q
|-5---5---3-----0-|-5---3-1-0------|-5---5---3-----1-|-0---0----------|
|-----------------|----------------|-----------------|---------3------|
|-----------------|----------------|-----------------|----------------|
|-0---------------|-3--------------|-0---------------|-2-------0------|
|---0---0---0-1---|---0---0-3-0----|---0---0---0-1---|---0---0---0----|
|-0---0---0-------|-0---0---0---5--|-0---0---0-------|-0---0---0---5--|


                          To Coda
  E E E E E E Q    E E E E E E Q    E E E E E E Q    E E E E E E Q
|-5---5---3------|-5---3-1-0------|-5-6-5-3-1---0--|----------------|
|----------------|----------------|----------------|-3--------------|
|----------------|----------------|----------------|-2--------------|
|-0--------------|-3--------------|-0--------------|-0--------------|
|---0---0---0-1--|---0---0-3-0----|---0---0---0-1--|---0---0---0----|
|-0---0---0------|-0---0---0---5--|-0---0---0------|-0---0---0---5--|


         |-3-|                  |-3-|
  Q  E E S S S +Q   E   E E E E S S S +Q.
|------1-0-1-0-(0)----|-------1-0-1-0-(0)---|
|----3--------------1-|-----3---------------|
|-2-------------------|---2-----------------|
|---------------------|---------------------|
|-0-------------------|-1-------0-----------|
|-0-------------------|-0-------0-----------|


                                D.S. al Coda
         |-3-|                  |-3-|
  Q  E E S S S +Q   E   E E E E S S S +Q.
|------1-0-1-0-(0)----|-------1-0-1-0-(0)----|
|----3--------------1-|-----3----------------|
|-2-------------------|---2------------------|
|---------------------|----------------------|
|-0-------------------|-1-------0------------|
|-0-------------------|-0-------0------------|


  H.=H
  &
  E E E E E E Q    W
|-5-6-5-3-1---0--|------*|
|----------------|-3----*|
|----------------|-2----*|
|-0--------------|-0----*|
|---0---0---0-1--|------*|
|-0---0---0------|-0----*|


Duration Legend
---------------
W - whole; H - half; Q - quarter; E - 8th; S - 16th; T - 32nd; X - 64th; a - acciaccatura
+ - note tied to previous; . - note dotted; .. - note double dotted
Uncapitalized letters represent notes that are staccato (1/2 duration)
Irregular groupings are notated above the duration line
Duration letters will always appear directly above the note/fret number it represents the
duration for.  Duration letters with no fret number below them represent rests.  Multi-
bar rests are notated in the form Wxn, where n is the number of bars to rest for.  Low
melody durations appear below the staff

Tablature Legend
----------------
 h   - hammer-on
 p   - pull-off
 b   - bend
 pb  - pre-bend
 r   - bend release (if no number after the r, then release immediately)
 /\  - slide into or out of (from/to "nowhere")
 s   - legato slide
 S   - shift slide
  - natural harmonic
[n]  - artificial harmonic
n(n) - tapped harmonic
 ~   - vibrato
 tr  - trill
 T   - tap
 TP  - trem. picking
 PM  - palm muting
\n/  - tremolo bar dip; n = amount to dip
 \n  - tremolo bar down
 n/  - tremolo bar up
/n\  - tremolo bar inverted dip
 =   - hold bend; also acts as connecting device for hammers/pulls
 <>  - volume swell (louder/softer)
 x   - on rhythm slash represents muted slash
 o   - on rhythm slash represents single note slash

Misc Legend
-----------
 |  - bar
||  - double bar
||o - repeat start
o|| - repeat end
*|  - double bar (ending)
 :  - bar (freetime)
 $  - Segno
 &  - Coda
Tempo markers -  = BPM(8/16=s8/s16), where s8 = swing 8ths, s16 = swing 16ths


***************************************************************************************
* Generated using Power Tab Editor by Brad Larsen - http://powertab.guitarnetwork.org *
***************************************************************************************
Login or Register to remove this ad.

1 comment on The Stone Tower

you're awesome and I love you

5

you're awesome and I love you