Login or Register to remove this ad.

Southern Swamp (Legend of Zelda: Majora's Mask) Guitar Tab

Submitted: May 19, 2017 by FocusShallNotFail

0
Download | Listen
Game: Legend of Zelda: Majora's Mask
Composer(s): Koji Kondo, Toru Minegishi
Style: Arrangement, Fingerstyle
Series: Legend of Zelda

Click here for a video example.

AutoScroll: Slow | Medium | Fast
Southern Swamp
Zelda Majora's Mask
Eduardo Barelli


E|-------------|-6------|-------------|-----------------|----------------4----|------0--------------|
B|-------------|--------|-9-----------|------7----------|-----------3---------|----------------9----|
G|-------------|--------|-7------7----|------5-----5----|------5--------------|----------------7----|
D|-------8-----|--------|-6------6----|------4-----4----|---------------------|-2----4----0----6----|
A|-7-----------|--------|--------5----|------------3----|-----------1----3----|---------------------|
E|-6-----------|--------|-------------|-----------------|---------------------|----------------8----|

E|------------------------------|---------------7----|----------------4----|------0--------------|
B|------------------------------|---------7-----6----|------3----1---------|----------------9----|
G|------7---9---7---9---7---9---|-7---9---7-----4----|---------------------|----------------7----|
D|----------------------6-------|---------4----------|---------------------|-2----4----0----6----|
A|----------------------5-------|--------------------|-----------1----3----|---------------------|
E|------------------------------|--------------------|---------------------|---------------------|

E|------------------------|-----------------|----------------4----|------0--------------|
B|---------5----9----9----|------7----------|-----------3---------|----------------3----|
G|-5---7-------------7----|-7----5-----5----|------5--------------|---------------------|
D|-------------------6----|------4-----4----|---------------------|-2----4---------2----|
A|-------------------5----|------------3----|-----------1----3----|-----------3---------|
E|------------------------|-----------------|---------------------|---------------------|

E|---------------------------|-------------|-----------------|------7----5----4----|
B|-3---5---3----3---5---3----|-L-----------|-5-----3-----5---|---------------------|
G|----------------------5----|-L-----------|-5-----3-----5---|-6-------------------|
D|---------------------------|-------------|-----------------|-7-------------------|
A|---------------------------|-------------|-----------------|---------------------|
E|---------------------------|-------------|-----------------|---------------------|

E|-0---------------|------8----7---------|-3---------------|------5----4----0----|
B|-5-----3-----5---|-9--------------9----|-5-----3-----5---|-2-------------------|
G|-5-----3-----5---|-9-------------------|-5-----3-----5---|-2---------5---------|
D|-----------------|---------------------|-----------------|-----------6---------|
A|-----------------|---------------------|-----------------|---------------------|
E|-----------------|---------------------|-----------------|---------------------|

E|-3-----2-----|
B|-------------|
G|-4-----------|
D|-5-----------|
A|-------------|
E|-------------|
Login or Register to remove this ad.