Ads

Mayor's Meeting (Legend of Zelda: Majora's Mask) Ukulele Tab

Submitted: May 18, 2017 by elyex303

5
Average: 5 (1 vote)
Download | Listen
Game: Legend of Zelda: Majora's Mask
Composer(s): Koji Kondo, Toru Minegishi
Style: Transcription
Series: Legend of Zelda

AutoScroll: Slow | Medium | Fast
The Legend of Zelda : Majora's Mask
Mayor's Meeting
Koji Kondo
elyex303
15/05/2017

see https://www.youtube.com/watch?v=ilQfVHGszWs2

For ukulele, tuning GCEA

Chords used : 
Cm : 0333
G : 0232
Fm : 1013

Tab : 
L = let ring
"V", "v" or "^" = strum the way of the arrow

Part 1

-------Cm----------G-----------
A : ------3-----3--------2--L--
E : ------3-----3-----3-----L--
C : --3------------2--------L--
G : ---------0-----------------

or (other style)

-------Cm----------G------------
A : ------3--3--3-----2---2--L--
E : ------3--3--3-----3---3--L--
C : --3------------2---------L--
G : ----------------------------

repeat 3 times then :

-------Cm----G--------Cm----
A : ------3------2----3--L--
E : ------3------3----3--L--
C : --3------2--------3--L--
G : ------------------------

repeat Part 1 once
then :

Part 2 
------Fm-----------------Cm---------------Fm-----------------Cm---------------Fm-----------------Cm----G-----
A : ---------------------------0--2--3-----------------------------0--2--3-----------------------3--L--2--L--
E : --1---v---L----------3--^-------------1---v---L----------3--^-------------1---v---L----------3--L--3--L--
C : --0---v---L----------3--^-------------0---v---L----------3--^-------------0---v---L----------3--L--2--L--
G : --1---V---3--5--7----0--^-------------1---V---3--5--7----0--^-------------1---V---3--5--7----------0--L--
Login or Register to remove this ad.