Ads

Deku Palace (Legend of Zelda: Majora's Mask) Guitar Tab

Submitted: Jan 14, 2015 by Alfa_ice

5
Average: 5 (3 votes)
Download | Listen
Game: Legend of Zelda: Majora's Mask
Composer(s): Koji Kondo, Toru Minegishi
Style: Arrangement, Fingerstyle
Series: Legend of Zelda

AutoScroll: Slow | Medium | Fast
                                  Deku Palace                                   


The Legend of Zelda: Majora's Mask
Music by Koji Kondo
Arranged by Isac Saleh

Standard tuning: EADGBE


     E  E  E  E  E  E  E  E     E  E  E  E  E  E  E  E   
E||--------------------------|--------------------------|
B||--------------------------|--------------------------|
G||--2-----------2-----------|--2--------2--2-----------|
D||--0--2--2--2--0--2--2-----|--0--2--2--0--0--2--2-----|
A||-----0--0--0-----0--0-----|-----0--0--------0--0-----|
E||--------------------------|--------------------------|


  E  S  S E  E  S  S S S E  E     E  S  S E  E  S  S S  S E  E   
--0-------0-----0--------0-----|--0-------0-----0---------0-----|
-----0h-1-0--------------------|---------------------3----------|
-------------2--0h-2-0---------|-----0h-2-0---------------------|
--2-------------0------4-2--2--|--2----------4--2h-4-2p-0-2--2--|
-----0----0----------0---0-----|-----0----0----------0----0-----|
-------------------------------|--------------------------------|


  E  S  S E  E  S  S S S E  E     S  S S  S E  E  E  E  E  E   
--0-------0-----0--------0-----|--0---------0-----0-----0-----|
-----0h-1-0--------------------|---------------------3--------|
-------------2--0h-2-0---------|-------0h-2-0-----------------|
--2-------------0------4-2--2--|--2h-4---------4--2-----2-----|
-----0----0----------0---0-----|-------0----0--------0--0-----|
-------------------------------|------------------------------|


  E  S  S E  E  S  S S S E  E     E  S  S E  E  S  S S  S E  E   
--0-------0-----0--------0-----|--0-------0-----0---------0-----|
-----0h-1-0--------------------|---------------------3----------|
-------------2--0h-2-0---------|-----0h-2-0---------------------|
--2-------------0------4-2--2--|--2----------4--2h-4-2p-0-2--2--|
-----0----0----------0---0-----|-----0----0----------0----0-----|
-------------------------------|--------------------------------|


  E  S  S E  E  S  S S S E  E     E  S  S E  S  S E  E  E  E   
--0-------0-----0--------0-----|--0-------0-------0-----0--L--|
-----0h-1-0--------------------|---------------------3--------|
-------------2--0h-2-0---------|--0--2p-0---------------------|
--2-------------0------4-2--2--|----------4--2p-0-2-----------|
-----0----0----------0---0-----|-----0---------------0--0-----|
-------------------------------|------------------------------|


    E  E  S  S S  S E  E  E  E     E  E  S  S S  S E  E  Q     
|-------------------------------|-----------------------------|
|---3----------1h-3-1--0--0-----|--3----------1h-3-0--0--0----|
|*--2--2--2h-4---------0--0--0--|--2--2--2h-4---------0--0----|
|*--0---------------0-----------|--0----------0----0----------|
|------0--0----0-------0--0-----|-----0--0------------0--0----|
|-------------------------------|-----------------------------|


  E  E  S  S S  S E  E  E  E     E  S S E  S  S E  E  Q       
------------------------------|-----------------------------||
--3----------1h-3-0--0--0--0--|--4--------------0--0--0-----||
--2--2--2h-4---------0--0-----|--2--0-----------0--0--0----*||
--0---------------0-----------|--0----4-2--4p-1-2----------*||
-----0--0----0-------0--0-----|-----0--------------0--0-----||
------------------------------|-----------------------------||


  E  S  S E  E  S  S S S E  E     E  S  S E  E  S  S S  S E  E   
--0-------0-----0--------0-----|--0-------0-----0---------0-----|
-----0h-1-0--------------------|---------------------3----------|
-------------2--0h-2-0---------|-----0h-2-0---------------------|
--2-------------0------4-2--2--|--2----------4--2h-4-2p-0-2--2--|
-----0----0----------0---0-----|-----0----0----------0----0-----|
-------------------------------|--------------------------------|


  E  S  S E  E  S  S S S E  E     S  S S  S E  E  E  E  E  E   
--0-------0-----0--------0-----|--0---------0-----0-----0-----|
-----0h-1-0--------------------|---------------------3--------|
-------------2--0h-2-0---------|-------0h-2-0-----------------|
--2-------------0------4-2--2--|--2h-4---------4--2-----2-----|
-----0----0----------0---0-----|-------0----0--------0--0-----|
-------------------------------|------------------------------|


    E  E  E  E  E  E  E  E     E  E  E  E  E  E  E  E   
|---0-----------0-----------|--0-----0--0--0-----------|
|---0-----------0-----------|--0--------1--0-----------|
|*--------------------------|--------2-----------------|
|*--0-----------0-----------|--0-----------0-----------|
|------0--0--0-----0--0-----|-----0-----------0--0-----|
|---------------------------|--------------------------|


  E  E  E  E  E  E  E  E     E  E  E  E  E  E  E  E     
--0-----------0-----------|---------------------------||
--0-----------0-----------|--3-----3--3--0------------||
--------------------------|--2-----0-----------------*||
--0-----------0-----------|--0--------4--2-----------*||
-----0--0--0-----0--0-----|-----0-----------0--0------||
--------------------------|---------------------------||


  E  E  E  E  E  E  E  E     E  E  E  E  E  E  E  E    
--------------------------|--------------------------||
--------------------------|--------------------------||
--------------------------|--------------------------||
--0-----------0-----------|--0--------0--0-----------||
-----0--0--0-----0--0-----|-----0--0--------0--0-----||
--------------------------|--------------------------||




Duration Legend
---------------
W - whole
H - half
Q - quarter
E - 8th
S - 16th
T - 32nd
X - 64th
. - note dotted
|-n-|  - n-tuplets


Tablature Legend
----------------
L - tied note
x - dead note
g - grace note
(n) - ghost note
> - accentuded note
NH - natural harmonic
AH - artificial harmonic
TH - tapped harmonic
SH - semi harmonic
PH - pitch harmonic
h - hammer on
p - pull off
b - bend
br - bendRelease
pb - preBend
pbr - preBendRelease
brb - bendReleaseBend
\n/ - tremolo bar dip
\n - tremolo bar dive
-/n - tremolo bar Release up
/n\ - tremolo bar inverted dip
/n - tremolo bar return
-\n - tremolo bar Release down
S - shift slide
s - legato slide
/ -  slide into from below or out of upwards
\ -  slide into from above or out of downwards
~ - vibrato
W - wide vibrato
tr - trill
TP - tremolo picking
T - tapping
S - slap
P - pop
< - fade in
^ - brush up
v - brush down
Login or Register to remove this ad.

1 comment on Deku Palace

I can't stop playing, please

5

I can't stop playing, please send help!!