Ads

Clock Town (Legend of Zelda: Majora's Mask) Ukulele Tab

Submitted: Jun 18, 2012 by pillihP (Last updated: Jun 18, 2012)

5
Average: 5 (1 vote)
Download | Listen
Game: Legend of Zelda: Majora's Mask
Composer(s): Koji Kondo, Toru Minegishi
Style: Arrangement, Fingerstyle
Series: Legend of Zelda

AutoScroll: Slow | Medium | Fast
Clock Town
Legend of Zelda: Majora's Mask
Tabbed By: Alfa Ice (Orginal Guitar Tab), pillihP (Changed Tab For Ukulele)
Composed By: Koji Kondo

Standard Tuning: AEDG 

A----0---------------------------------------------------------------------
E------------------4-------L----------2-----------------4----L-------------
D--------------------------------------------------------------------------
G--------------------------------------------------------------------------

--0--L-------------------------5-------7--------7-----5--2--5----7--4--------
--------5--4--2--0--2-------L-------------------------------4----------------
--------------------8------------------6-------------------------------------
--2------------------------------------------4-------------------------------

--0--L-------------------------5-------7--5--2--5--------4--0--------L------
--------5--4--2--0--2-------L-------------------4---------------------------
--------------------8------------------6------------------------------------
--2---------------------------------------------------------2--------L------

--0--L-------------------------5-------7--------7-----5--2--5----7--4--------
--------5--4--2--0--2-------L-------------------------------4----------------
--------------------8------------------6-------------------------------------
--2------------------------------------------4-------------------------------
H...
--0--L-------------------------5-------7--5--2--4------5-----0--------L------
--------5--4--2--0--2-------L-------------------4----------------------------
--------------------8------------------6-------------------------------------
--2-------------------------------------------------------1--2--------L------
H...
--0--L----------------------------------5--4--5--4----------------------------
---------------------4----------0----------------------------4-------0--------
-------------------------------------L--6---------------------------------L---
--2-----2--2--1---2--4-------L----------------------------2--4----L-----------
H...
--0--L----------------------------------5--4--5--4-----------0--------L-----
---------------------4----------0----------------4--------------------------
-------------------------------------L--6-----------------------------------
--2-----2--2--1---2--4-------1----------------------------1--2--------L-----
H...
--0--L----------------------------------5--4--5--4----------------------------
---------------------4----------0----------------------------4-------0--------
-------------------------------------L--6---------------------------------L---
--2-----2--2--1---2--4-------L----------------------------2--4----1-----------
H...
--0--L----------------------------------5--4--5--4-----------0--------L-----
---------------------4----------0----------------4--------------------------
-------------------------------------L--6-----------------------------------
--2-----2--2--1---2--4------------------------------------1--2--------L-----

--0--------L----0------------------------------------------------
-----------L---------------------4----------------2--------------
---------------------------------8-----------L----6--------------
--2--------L----2----------------4-----------L----2--------------

Duration Legend
---------------
W - whole
H - half
Q - quarter
E - 8th




Tablature Legend
----------------
L - tied note
> - accentuded note
NH - natural harmonic
h - hammer on
p - pull off
< - fade in
s - legato slide

Hope you guys enjoy, and thanks so much to Alfa ice for letting me re-tab this song for ukulele.
Login or Register to remove this ad.

1 comment on Clock Town

yay for ukulele!

Thanks for making a ukulele tab! :D. It's so fun to play too!