Tail Cave (Legend of Zelda: Link's Awakening) Guitar Tab

Submitted: Dec 04, 2010 by BacardiBreezer (Last updated: Dec 06, 2010)

5
Average: 5 (2 votes)
Download | Listen
Game: Legend of Zelda: Link's Awakening
Composer(s): Kazumi Totaka, Minako Hamano, Kozue Ishikawa
Style: Transcription
Series: Legend of Zelda

AutoScroll: Slow | Medium | Fast
Tail Cave - Level 1
LoZ: Link's Awakening
Composer: Koji Kondo
Tabbed by: Bacardibreezer
12/4/10

e|------------------------------------------------------------------------------|
B|------------------------------------------------------------------------------|
G|----------14------------------13--------------------13----------------13------|
D|--9-11-12-------------9-11-12-----------------11-12-----------9-11-12---------|
A|-------------(14)----------------(14)------14----------(14)--------------(14)-|
E|------------------------------------------------------------------------------|

e|------------------------------------------------------------------------|
B|----------12-------------11-------------------10----------------11------|
G|--------9------------8-9------------------9-8---------------9-8---------|
D|--11-13-----(11)---11-------(11)--------11-------(11)-----11-------(11)-|
A|------------------------------------------------------------------------|
E|------------------------------------------------------------------------|

e|--------------------------------------------------------------------------------------|
B|-----------15-----------------16-----------------17-----------------------------------|
G|--------12--------------12-13--------------13-14--------------------------------------|
D|--14-16-------(14)---15----------(15)---16-----------(16)-----------------------------|
A|--------------------------------------------------------------------------------------|
E|------------------------------------------------------------(14)(14)(14)-----(14)-----|
Login or Register to remove this ad.

1 comment on Tail Cave

audio link