Ads

Mabe Village (Legend of Zelda: Link's Awakening) Guitar Tab

Submitted: Feb 05, 2014 by diralark

5
Average: 5 (8 votes)
Download | Listen
Game: Legend of Zelda: Link's Awakening
Composer(s): Kazumi Totaka, Minako Hamano, Kozue Ishikawa
Style: Arrangement, Fingerstyle
Series: Legend of Zelda

AutoScroll: Slow | Medium | Fast
             Mabe Village    -     Legend of Zelda: Link's Awakening

Music by Kazumi Totaka, Minako Hamano, Kozue Ishikawa >> sequenced by [email protected] 
>> guitar arr. by Diralark

  Guitar, Capo 3, Tempo = 115
                                                                         III              
      E  E  E  E  E  E  E  S  S    E  E  E  E  E  E  E  S  S    E  E  E  E  E  E  E  E   
E||-----------------------------|----------------------------|--------5--------3--5--3--|
B||---3--------------------0h-1-|--3--3-----------------0h-1-|--0--3--------------------|
G||*--------0-----2-------------|--------0--0--2-------------|--------------------------|
D||*-----0-----0-----2-----2----|-----------------2-----2----|--------------------------|
A||-----------------------------|----------------------------|-----------5--------5-----|
E||---3-----3-----3-----3-------|--3-----3-----3-----3-------|--3-----3-----3-----------|


                                                               Bm7 (II)       -]                
  E  S  S E  E  E  E  S S  S  S    E  E  E  E  E  E  E  S S    E  E  E  E  E  E  E  S  S  
--------------------------------|--0----------------------0-|----------------------------|
--3--1p-0---------------0h-1h-3-|---------------------------|--3--3-----------0----------|
----------2---------------------|-----0--0--0-----2-----2---|-----2-----2--0-------------|
-----2-------2--4--0--2---------|--------------4------------|--------4-----2-----2--5p-4-|
--0-------0-----5---------------|--3-----3-----3-----3------|--2-----2-------------------|
--------------------------------|---------------------------|----------------------------|


                                                        VII         -]                  
  E  E  E  E  E  E  E  E     E  E  E  E  E  E  E  E     E  E  E  E  E   E  E   E   6x
--------------------------|--------------------------|----10----10-----10-----10---||
--------0-----------------|--------------------------|-----------------------------||
-----0--------------0-----|-----7-----7-----7-----7--|--7-----7-----7------7------*||
--2--2-----2-----7--0-----|--0-----0-----0-----0-----|----------------------------*||
--0-----0-----0--------6--|--------------------------|--------------0--------------||
--------------------------|--------------8-----------|--7--------------------------||


not difficult but need training :)

Legend
---------------
E - 8th Note Duration 
S - 16th
Login or Register to remove this ad.