Inside the Houses (Legend of Zelda: Link's Awakening) Guitar Tab

Submitted: Jun 19, 2019 by chimatte

5
Average: 5 (2 votes)
Download | Listen
Game: Legend of Zelda: Link's Awakening
Composer(s): Kazumi Totaka, Minako Hamano, Kozue Ishikawa
Style: Arrangement, Fingerstyle
Series: Legend of Zelda

Click here for a video example.

AutoScroll: Slow | Medium | Fast
                                        INSIDE THE HOUSES                                           


                                                                      arr. chit. Giuseppe De Matteis
INSIDE THE HOUSES



     E  E  E  E  E  E     E  E  E  E  E  E     E  E  E  E  E  E     E  E  E  E  E  E   
E||--------------------|--------------------|--------------5--3--|--------------------|
B||--0--------------0--|--1-----------0--1--|--3-----------------|--3-----------1--0--|
G||--------------2-----|-----------0--------|-----------2--------|--------------------|
D||-----------4--------|--------2-----------|--------4-----------|-----------0--------|
A||--------5-----------|-----0--------------|-----2--------------|--------2-----------|
D||-----5--------------|--------------------|--------------------|-----2--------------|


  E  E  E  E  E  E     E  E  E  E  E  E     E  E  E  E  E  E     E  E  E  E  E  E   
--------------------|--------------------|--------------------|--------------------|
--0--------------0--|--1-----------0--1--|--------------------|--------------------|
-----------0--2-----|-----------0--------|--2--------------0--|--------------0--2--|
--------2-----------|--------1-----------|--------------1-----|--4-----2--4--------|
-----0--------------|-----0--------------|--------0--3--------|-----5--------------|
--------------------|--------------------|-----0--------------|--------------------|


  E  E  E  E  E  E     E  E  E  E  E  E     E  E  E  E  E  E     E  E  E  E  E  E   
--------------------|--------------------|--------------7--5--|--5--------4--1--0--|
--0--------------0--|--1-----------0--1--|--3-----------------|--------------------|
--------------2-----|-----------0--------|-----------2--------|--------------------|
-----------4--------|--------2-----------|--------4-----------|--------------------|
--------5-----------|-----0--------------|-----2--------------|--------2-----------|
-----5--------------|--------------------|--------------------|-----3--------------|


  E  E  E  E  E  E     E  E  E  E  E  E     E  E  E  E  E  E     E  E  E  E  E  E   
--------------------|--------------------|-----------------7--|--5--------------2--|
--3-----------1--0--|--0--------------0--|-----------0--------|--------------------|
-----------0--------|--------------2-----|--0-----0-----5-----|-----------2--5-----|
--------2-----------|--------------------|--------------------|--------4-----------|
-----0--------------|--------0--3--------|-----3--------------|-----2--------------|
--------------------|-----0--------------|--------------------|--------------------|


  E  E  E  E  E  E     E  E  E  E  E  E     E  E  E  E  E  E     Q    E   E   Q     Q       
--0--------------0--|--------------------|--------------------|----------10---L-----L-----||
--------------------|--4-----------------|--3-----------------|--3------------------------||
-----------0--2-----|-----------------0--|--------------------|-------7------------------*||
--------2-----------|--------------1-----|--------------0--4--|--------------------------*||
-----0--------------|--------0--3--------|-----------0--------|---------------------------||
--------------------|-----0--------------|-----0--4-----------|---------------------0-----||


  W                  
--3----------------||
--0----------------||
-------------------||
--0----------------||
-------------------||
--5----------------||




Duration Legend
---------------
W - whole
H - half
Q - quarter
E - 8th
S - 16th
T - 32nd
X - 64th
. - note dotted
|-n-|  - n-tuplets


Tablature Legend
----------------
L - tied note
x - dead note
g - grace note
(n) - ghost note
> - accentuded note
NH - natural harmonic
AH - artificial harmonic
TH - tapped harmonic
SH - semi harmonic
PH - pitch harmonic
h - hammer on
p - pull off
b - bend
br - bendRelease
pb - preBend
pbr - preBendRelease
brb - bendReleaseBend
\n/ - tremolo bar dip
\n - tremolo bar dive
-/n - tremolo bar Release up
/n\ - tremolo bar inverted dip
/n - tremolo bar return
-\n - tremolo bar Release down
S - shift slide
s - legato slide
/ -  slide into from below or out of upwards
\ -  slide into from above or out of downwards
~ - vibrato
W - wide vibrato
tr - trill
TP - tremolo picking
T - tapping
S - slap
P - pop
< - fade in
^ - brush up
v - brush down
Login or Register to remove this ad.