Ads

Inside the Houses (Legend of Zelda: Link's Awakening) Guitar Tab

Submitted: Dec 27, 2011 by Kabukibear (Last updated: Dec 28, 2011)

5
Average: 5 (13 votes)
Download | Listen
Game: Legend of Zelda: Link's Awakening
Composer(s): Kazumi Totaka, Minako Hamano, Kozue Ishikawa
Style: Arrangement
Series: Legend of Zelda

AutoScroll: Slow | Medium | Fast
Inside the Houses
~The Legend of Zelda: Link's Awakening DX~
Composed by: Yuichi Ozaki, Kazumi Totaka, Minako Hamano, Kazue Ishikawa
Arranged by: Justin Lincoln

Tempo = 120
Drop D Tuning
                                             
E |----------------------|----------------------|--------------5--3----|
B |--0--------------0----|--1-----------0--1----|--3-------------------|
G |--------------2-------|-----------0----------|-----------2----------|
D |-----------4----------|--------2-------------|--------4-------------|
A |--------5-------------|-----0----------------|-----2----------------|
D |-----5----------------|----------------------|----------------------|

                                                                
----------------------------------------|----------------------|
--3-----------------------1-----0h-1----|--0--------------0----|
----------------------------------------|-----------0--2-------|
--------------------0-------------------|--------2-------------|
--------------2-------------------------|-----0----------------|
--------2-------------------------------|----------------------|

                                                                     
----------------------|----------------------|----------------------|
--1-----------0--1----|----------------------|----------------------|
-----------0----------|--2--------------0----|--------------0--2----|
--------1-------------|--------------1-------|--4-----2--4----------|
-----0----------------|--------0--3----------|-----5----------------|
----------------------|-----0----------------|----------------------|

                                                                     
----------------------|----------------------|--------------7--5----|
--0--------------0----|--1-----------0--1----|--3-------------------|
--------------2-------|-----------0----------|-----------2----------|
-----------4----------|--------2-------------|--------4-------------|
--------5-------------|-----0----------------|-----2----------------|
-----5----------------|----------------------|----------------------|

                                                                
--5--------4-----0----|----------------------------------------|
--------------6-------|--3-----------------------1-----0h-1----|
----------------------|--------------------0-------------------|
----------------------|--------------2-------------------------|
--------2-------------|--------0-------------------------------|
-----2----------------|----------------------------------------|

                                                                     
----------------------|-----------------7----|--5--------------2----|
--0--------------0----|-----------0----------|----------------------|
--------------2-------|--0-----0-----5-------|-----------2--4-------|
----------------------|----------------------|--------4-------------|
--------0--3----------|-----3----------------|-----2----------------|
-----0----------------|----------------------|----------------------|

                                                                     
--0--------------0----|----------------------|----------------------|
----------------------|--4-------------------|--3-------------------|
-----------0--2-------|-----------------0----|----------------------|
--------2-------------|--------------1-------|--------------0--4----|
-----0----------------|--------0--3----------|-----------0----------|
----------------------|-----0----------------|-----0--4-------------|

                               ^
-----------10L10-----------||--3----||
---------------------------||--0----||
--7-----7-----------------o||--0----||
--------------------------o||--0----||
---------------------------||-------||
--------------------0------||--5----||






Legend
h - hammer on/pull off
^ - brush down
Login or Register to remove this ad.

2 comments on Inside the Houses

Nice and easy. Bump for

Nice and easy. Bump for recognition.

:O Needs more votes!

5

:O

Needs more votes!