Ads

In the Houses (Legend of Zelda: Link's Awakening) Guitar Tab

Submitted: Aug 08, 2011 by OggirtMoonfrad (Last updated: Aug 08, 2011)

5
Average: 5 (10 votes)
Download | Listen
Game: Legend of Zelda: Link's Awakening
Composer(s): Kazumi Totaka, Minako Hamano, Kozue Ishikawa
Style: Arrangement, Fingerstyle, Natural harmonics, Pinch harmonics
Series: Legend of Zelda

This song is also called House Theme

Click here for a video example.

AutoScroll: Slow | Medium | Fast
In the Houses / House Theme
The Legend of Zelda: Link's Awakening
Composed by Minako Hamano/Kozue Ishikawa
Arranged and tabbed by OggirtMoonfrad (Misha Colbourne)
07/08/2011

Track 1 (Capo 4)
     E  E  E  E  E  E     E  E  E  E  E  E     E  E  E  E  E  E     E  E  E  E  E  E   
E||--------------------|--------------------|--------------7--5--|--0-----------------|
B||--2--------------2--|--3-----------2--3--|--5-----------------|--------------3--2--|
G||-----------2--4-----|-----------2--------|-----------4--------|--------------------|
D||--------2-----------|--------4-----------|--------6-----------|-----------2--------|
A||-----0--------------|-----2--------------|-----4--------------|--------4-----------|
E||--------------------|--------------------|--------------------|-----2--------------|


  E  E  E  E  E  E     E  E  E  E  E  E     E  E  E  E  E  E     E  E  E  E  E  E   
--------------------|--------------------|--------------------|--------------------|
--2--------------2--|--3-----------2--3--|--0-----------------|--------------------|
-----------2--4-----|-----------2--------|-----------------2--|--1--------1--2--4--|
--------4-----------|--------3-----------|-----------0--3-----|-----2--4-----------|
-----2--------------|-----2--------------|--------2-----------|--------------------|
--------------------|--------------------|-----0--------------|--------------------|


  E  E  E  E  E  E     E  E  E  E  E  E     E  E  E  E  E   E     E  E  E  E  E  E   
--------------------|--------------------|--------------9S--7--|--7--------6--3--2--|
--2--------------2--|--3-----------2--3--|--5------------------|--------------------|
-----------2--4-----|-----------2--------|-----------4---------|--------------------|
--------2-----------|--------4-----------|--------6------------|--------------------|
-----0--------------|-----2--------------|-----4---------------|--------4-----------|
--------------------|--------------------|---------------------|-----2--------------|


  E  E  E  E  E  E     E  E  E  E  E  E     E  E  E  E  E  E     E  E  E  E  E  E   
--0-----------------|--------------------|-----------------9--|--7--------------4--|
--------------3--2--|--2--------------2--|-----------2--3-----|-----------0--------|
-----------2--------|--------------4-----|--2-----2-----------|--------------6-----|
--------4-----------|-----------0--------|-----0--------------|--------6-----------|
-----2--------------|--------2-----------|--------------------|-----4--------------|
--------------------|-----0--------------|--------------------|--------------------|


                                                                            NH       
  E  E  E  E  E  E     E  E  E  E  E  E     E  E  E  E  E  E     Q    E     Q.       
--2--------------2--|--1-----------------|--0-----------------|--0----0--<>12------||
--------------------|--------------------|-----------------0--|--------------------||
-----------2--4-----|-----------------2--|--------------1-----|--------------------||
--------4-----------|-----------0--3-----|-----------2--------|--------------------||
-----2--------------|--------2-----------|--------2-----------|--------------------||
--------------------|-----1--------------|-----0--------------|--------------------||




Duration Legend
---------------
W - whole
H - half
Q - quarter
E - 8th
S - 16th
T - 32nd
X - 64th
. - note dotted
|-n-|  - n-tuplets


Tablature Legend
----------------
L - tied note
x - dead note
g - grace note
(n) - ghost note
> - accentuded note
NH - natural harmonic
AH - artificial harmonic
TH - tapped harmonic
SH - semi harmonic
PH - pitch harmonic
h - hammer on
p - pull off
b - bend
br - bendRelease
pb - preBend
pbr - preBendRelease
brb - bendReleaseBend
\n/ - tremolo bar dip
\n - tremolo bar dive
-/n - tremolo bar Release up
/n\ - tremolo bar inverted dip
/n - tremolo bar return
-\n - tremolo bar Release down
S - shift slide
s - legato slide
/ -  slide into from below or out of upwards
\ -  slide into from above or out of downwards
~ - vibrato
W - wide vibrato
tr - trill
TP - tremolo picking
T - tapping
S - slap
P - pop
< - fade in
^ - brush up
v - brush down
Login or Register to remove this ad.

3 comments on In the Houses

This is amazing, well done.

This is amazing, well done.

Hey it's very pretty tab

5

I missed it but finally find it, good jod sir OggirtMoonfrad

Yep.

5

Yep.