Ads

Face Shrine (Legend of Zelda: Link's Awakening) Guitar Tab

Submitted: Oct 31, 2017 by thedstring

5
Average: 5 (2 votes)
Download | Listen
Game: Legend of Zelda: Link's Awakening
Composer(s): Kazumi Totaka, Minako Hamano, Kozue Ishikawa
Style: Arrangement, Fingerstyle, Natural harmonics
Series: Legend of Zelda

AutoScroll: Slow | Medium | Fast
Title: Face Shrine
Game: Zelda ~ Link's Awakening (Gameboy)

Recorded example: https://www.youtube.com/watch?v=crWIQKdRkNA

Capo Fret 1
Standard Tuning

  Swing feel
  e  e  e  e  e  e  e  e      ( just keep up the swing 8ths )
----------------------------|----------------------------|----------------------------|----------------------------|
-----0-----0-----0-----0----|-----0-----0-----0-----0----|-----0-----0-----0-----0----|-----0-----0-----0-----0----|
--------------7-------------|--------------7-------------|--------------7-------------|--------------7-------------|
--------8-----------8-------|--------8-----------8-------|--------8-----------8-------|--------8-----------8-------|
--9-------------------------|--9-------------------------|--10------------------------|--10------------------------|
----------------------------|----------------------------|----------------------------|----------------------------|


                                                           VII_________________________________________________
--------------0-------------|--------------0-------------|----------------------------|----------------------------|
--------0-----------0-------|--------0-----------0-------|--------------7-------------|--------------7-------------|
-----6-----6-----6-----6----|-----6-----6-----6-----6----|-----7-----7-----7-----7----|-----7-----7-----7-----7----|
--5-------------------------|--5-------------------------|--------11----------11------|--------11----------11------|
----------------------------|----------------------------|--9-------------------------|--9-------------------------|
----------------------------|----------------------------|----------------------------|----------------------------|



----------------------------|----------------------------|--------------0-------------|--------------0-------------|
--0-----------8-------------|--0-----------8-------------|--------0-----------0-------|--------0-----------0-------|
-----7--6--7-----7--6--7----|-----7--6--7-----7--6--7----|--0-------------------------|--0-------------------------|
----------------------------|----------------------------|-----11----11----11----11---|-----11----11----11----11---|
----------------------------|----------------------------|----------------------------|----------------------------|
----------------------------|----------------------------|----------------------------|----------------------------|



--------------0-------------|--------------0-------------|----------------------------|----------------------------|
--------0-----------0-------|--------0-----------0-------|--------------7-------------|--------------7-------------|
-----6-----6-----6-----6----|-----6-----6-----6-----6----|-----7--6--7-----7--6--7----|-----7--6--7-----7--6--7----|
--7-------------------------|--7-------------------------|--7-------------------------|--7-------------------------|
----------------------------|----------------------------|----------------------------|----------------------------|
----------------------------|----------------------------|----------------------------|----------------------------|


 III_________________________________________________
--------------3-------------|--------------3-------------|----------------------------|----------------------------|
-----3-----3-----3-----3----|-----3-----3-----3-----3----|--------0-----------0-------|--------0-----------0-------|
--------6-----------6-------|--------6-----------6-------|--------------10------------|--------------10------------|
--5-------------------------|--5-------------------------|-----11----11----11----11---|-----11----11----11----11---|
----------------------------|----------------------------|--11------------------------|--11------------------------|
----------------------------|----------------------------|----------------------------|----------------------------|


  II________________________________________________________w
--------------2-------------|--------------2-------------|-------|
-----2-----2-----2-----2----|-----2-----2-----2-----2----|-------|
--------4-----------4-------|--------4-----------4-------|-------|
--4-------------------------|--4-------------------------|-------|
----------------------------|----------------------------|-------|
----------------------------|----------------------------|--2----|


In this section do a lot of "start slow and speed up then slow back down" how ever it feels right.
Listen to the recording for how I did it.
----------------------------------------------------|----------------------------------------------------|
--0-----------0-----------0-----------0-------------|--0-----------0-----------0-----------0-------------|
-----7-----------7-----------7-----------7----------|-----7-----------7-----------7-----------7----------|
--------8-----------8-----------8-----------8-------|--------8-----------8-----------8-----------8-------|
-----------9-----------9-----------9-----------9----|-----------9-----------9-----------9-----------9----|
----------------------------------------------------|----------------------------------------------------|



----------------------------------------------------|----------------------------------------------------|
--0-----------0-----------0-----------0-------------|--0-----------0-----------0-----------0-------------|
-----7-----------7-----------7-----------7----------|-----7-----------7-----------7-----------7----------|
--------8-----------8-----------8-----------8-------|--------8-----------8-----------8-----------8-------|
-----------10----------10----------10----------10---|-----------10----------10----------10----------10---|
----------------------------------------------------|----------------------------------------------------|



--0-----------0-----------0-----------0-------------|--0-----------0-----------0-----------0-------------|
-----0-----------0-----------0-----------0----------|-----0-----------0-----------0-----------0----------|
--------6-----------6-----------6-----------6-------|--------6-----------6-----------6-----------6-------|
-----------5-----------5-----------5-----------5----|-----------5-----------5-----------5-----------5----|
----------------------------------------------------|----------------------------------------------------|
----------------------------------------------------|----------------------------------------------------|


  VII________________________________________________________________________________________________
----------------------------------------------------|----------------------------------------------------|
--7-----------7-----------7-----------7-------------|--7-----------7-----------7-----------7-------------|
-----7-----------7-----------7-----------7----------|-----7-----------7-----------7-----------7----------|
--------11----------11----------11----------11------|--------11----------11----------11----------11------|
-----------9-----------9-----------9-----------9----|-----------9-----------9-----------9-----------9----|
----------------------------------------------------|----------------------------------------------------|


 III_________________________________________________________________________________________________
--3-----------3-----------3-----------3-------------|--3-----------3-----------3-----------3-------------|
-----3-----------3-----------3-----------3----------|-----3-----------3-----------3-----------3----------|
--------6-----------6-----------6-----------6-------|--------6-----------6-----------6-----------6-------|
-----------5-----------5-----------5-----------5----|-----------5-----------5-----------5-----------5----|
----------------------------------------------------|----------------------------------------------------|
----------------------------------------------------|----------------------------------------------------|



--0-----------0-----------0-----------0-------------|--0-----------0-----------0-----------0-------------|
-----0-----------0-----------0-----------0----------|-----0-----------0-----------0-----------0----------|
--------11----------11----------11----------11------|--------11----------11----------11----------11------|
-----------11----------11----------11----------11---|-----------11----------11----------11----------11---|
----------------------------------------------------|----------------------------------------------------|
----------------------------------------------------|----------------------------------------------------|



--0-----------0-----------0-----------0-------------|--0-----------0-----------0-----------0-------------|
-----0-----------0-----------0-----------0----------|-----7-----------7-----------7-----------7----------|
--------6-----------6-----------6-----------6-------|--------6-----------6-----------6-----------6-------|
-----------7-----------7-----------7-----------7----|-----------7-----------7-----------7-----------7----|
----------------------------------------------------|----------------------------------------------------|
----------------------------------------------------|----------------------------------------------------|



--7-----------7-----------7-----------7-------------|--7-----------7-----------7-----------7-------------|
-----7-----------7-----------7-----------7----------|-----7-----------7-----------7-----------7----------|
--------6-----------6-----------6-----------6-------|--------6-----------6-----------6-----------6-------|
-----------7-----------7-----------7-----------7----|-----------7-----------7-----------7-----------7----|
----------------------------------------------------|----------------------------------------------------|
----------------------------------------------------|----------------------------------------------------|


 III_________________________________________________________________________________________________
--3-----------3-----------3-----------3-------------|--3-----------3-----------3-----------3-------------|
-----3-----------3-----------3-----------3----------|-----3-----------3-----------3-----------3----------|
--------6-----------6-----------6-----------6-------|--------6-----------6-----------6-----------6-------|
-----------5-----------5-----------5-----------5----|-----------5-----------5-----------5-----------5----|
----------------------------------------------------|----------------------------------------------------|
----------------------------------------------------|----------------------------------------------------|


                                                       II_______________________________________________
----------------------------------------------------|--2-----------2-----------2-----------2-------------|
--0-----------0-----------0-----------0-------------|-----2-----------2-----------2-----------2----------|
-----10----------10----------10----------10---------|--------4-----------4-----------4-----------4-------|
--------11----------11----------11----------11------|-----------4-----------4-----------4-----------4----|
-----------11----------11----------11----------11---|----------------------------------------------------|
----------------------------------------------------|----------------------------------------------------|


 II_____________________________________________
--2-----------2-----------2-----------2-------------|
-----2-----------2-----------2-----------2----------|
--------4-----------4-----------4-----------4-------|
-----------4-----------4-----------4-----------4----|
----------------------------------------------------|
----------------------------------------------------|



Again, listen to the recording for the feeling of this part
The start of this is a little tricky, I like to use all 5 fingers for the first part, I'll denote the fingers
above the tab (you could also just play the first two open strings with your ring finger, sweep picking style): 
t = thumb, i = index, m = middle, r = ring, p = pinky
  t        p  r  m  i  t  r  m  i  t  r  m  i  t       t  r  m  i  t  r  m  i  t  r  m  i  t  r  m  i  t
----------------------------------------------------|-----0-----------0-----------8-----------8-------------|
-----------0--------------0-----------0-------------|--------7-----------7-----------7-----------7----------|
--------------0--------------0-----------0----------|-----------5-----------5-----------5-----------5-------|
-----------------7--------------7-----------7-------|--------------7-----------7-----------7-----------7----|
--------------------4--4-----------------------4----|--0----------------------------------------------------|
--6--------------------------------6----------------|-------------------------------------------------------|


 II___________________________________________________ w
-----2-----------2----------------------------------|-------|
--------2-----------2--------------------2----------|-------|
-----------3-----------3--------------3-----3-------|-------|
--4-----------4-----------4--------4-----------4----|-------|
--------------------------------4-------------------|-------|
-----------------------------2----------------------|--2----|


There are two endings, in the recording I went with the second, but the first sounds more like the original song
Ending 1:
--------------------0-------|-----0----------------------||
-----------------------8----|--7-----2-------------------||
-----------0-----6----------|-----------3----------------||
--------------8-------------|--------------4--2----------||
-----4--7-------------------|--------------------4--1----||
--6-------------------------|----------------------------||


Ending 2:  All natural harmonics
----------------------<7>----||
-------------------<7>-------||
----------------<5>----------||
--------<5>------------------||
--<5>-------<9>--------------||
-----<9>---------------------||
Login or Register to remove this ad.

2 comments on Face Shrine

Interesting tab

5

The only thing I wish was here was timing notation on the site but thats no big deal really since you have a recording but I like to interpret the music myself without a recording personally.

I did put a few timing marks

I did put a few timing marks in there, but this is such a free flowing version, it would be hard to put exact timing all over the place. I think my comments as well as the GPX (and recording as you mentioned) should be a good starting point for anyone wanting to play with it =)