Ads

Ballad of the Wind Fish (Legend of Zelda: Link's Awakening) Guitar Tab

Submitted: May 16, 2014 by Alfa_ice

5
Average: 5 (6 votes)
Download | Listen
Game: Legend of Zelda: Link's Awakening
Composer(s): Kazumi Totaka, Minako Hamano, Kozue Ishikawa
Style: Arrangement, Fingerstyle
Series: Legend of Zelda

AutoScroll: Slow | Medium | Fast
                            Ballad of The Wind Fish                             

The Legend of Zelda: Link's Awakening
Tabbed by: Isac Saleh

Standard tuning: EADGBE (Capo 3rd fret)



     E  E  E  E  E  E  E  E  E  E     E  E  E  E  E  E  E  E   
E||--0--2--3-----------------0--2--|--3--------------2--0-----|
B||--------------------------------|-----------------------0--|
G||--------------0-----------0-----|--------0-----------0-----|
D||-----------2-----2-----2-----2--|-----2-----2-----2-----2--|
A||--------3-----------3-----------|--3-----------3-----------|
E||--------------------------------|--------------------------|


  E  E  E  E  E  E  E  E     E  E  E  E  E  E  E  E   
--------------0-----------|--------------------0--2--|
--3-----------------------|--------------------------|
--------------------------|--------------------------|
-----0--4--0-----0--4--0--|-----0--4--0-----0--4--0--|
--2-----------2-----------|--2-----------2-----------|
--------------------------|--------------------------|


  E  E  E  E  E  E  E  E     E  E  E  E  E  E  E  E   
--3-----------------0--3--|--8-----------------------|
--------------------------|--------------------0-----|
--------0-----------0-----|--------0-----------0--2--|
-----2-----2-----2-----2--|-----------------------2--|
--3-----------3-----------|-----7-----7-----7--------|
--------------------------|--8-----------8-----------|


  E  E  E  E  E  E  E  E     E  E  E  E  E  E  E  E   
--------------------------|--------------------2-----|
--0-----------------------|--------------------------|
--------------------------|--------------------------|
-----0--4--0-----0--4--0--|-----0--4--0-----0--4--0--|
--2-----------2-----------|--2-----------2-----------|
--------------------------|--------------------------|


  E  E  E  E  E  E  E  E     E  E  E  E  E  E  E  E   
--0-----------------------|--------------------5--3--|
--------0-----0-----1-----|--------1-----------1-----|
-----0-----0-----0-----0--|-----0-----0-----0-----0--|
--2-----------2-----------|--2-----------2-----------|
--------------------------|--------------------------|
--------------------------|--------------------------|


  E  E  E  E  E  E  E  E     E  E  E  E  E  E  E  E   
--2--0-----------------0--|--------------------------|
--------0-----0-----0-----|--1-----1-----------1--3--|
-----0-----2-----0-----0--|-----0-----0-----0-----0--|
--2-----------2-----------|--2-----------2-----------|
--------------------------|--------------------------|
--------------------------|--------------------------|


  E  E  E  E  E  E  E  E     E  E  E  E  E  E  E  E   
--------------------------|-----------------------0--|
--------------------3--0--|--------0-----------1-----|
--------2--------2--------|--0-----------------0--0--|
--0--3-----3--3-----------|-----0-----0--4--3--------|
--------------------------|--------------------------|
--------------------------|--------------------------|


  E  E  E  E  E  E  E  E     E  E  E  E  E  E  E  E   
--------------------------|-----------8--------7-----|
--------1-----------1-----|--4-----1-----------------|
-----0-----0-----0-----0--|-----2--------------5-----|
--------------------------|--3--------------7-----7--|
--3-----------3-----------|--------------8-----------|
--------------------------|--------------------------|


  E  E  E  E  E  E  E  E     Q    E  E  E  E  E  E     E  E  E  E  E  E  E  E   
--------------------------|-------------------------|-----0--3--0-----0--3--0--|
--------0-----------0-----|-------0-----------0-----|--0-----------1-----------|
-----0-----0-----0-----0--|--2-------0-----0--------|--0-----------------------|
--2-----------2-----------|--2----------2-----2--4--|--------------------------|
--------------------------|--0----------------------|--3-----------------------|
--------------------------|-------------------------|--------------------------|


  E  E  E  E  E  E  E  E     E  E  E  E  E  E  E  E   
-----0--3--0-----0--3--0--|--------2-----------2-----|
--1-----------1-----------|--0--3-----3--0--3-----3--|
--------------0-----------|--------------2-----------|
--------2--4-----4--2-----|--0-----------2-----------|
-----------------------2--|--2-----------------------|
--------------------------|--------------------------|


  E  E  E  E  E  E  E  E     E  E  E  E  E  E  E  E   
--------2-----------2-----|-----0--3--0-----0--3--0--|
--0--3-----3--0--3-----3--|--0-----------1-----------|
--------------------------|--0--------------------0--|
--------------------2--4--|--------------------2-----|
--------------------------|--3-----------------------|
--------------------------|--------------------------|


  E  E  E  E  E  E  E  E     E  E  E  E  E  E  E  E   
-----0--3--0-----0--3--0--|--------2-----------2-----|
--1-----------1-----0-----|--0--3-----3--0--3-----3--|
-----------------------2--|--------------------------|
--------------------------|--------------------------|
--0-----------------------|--2-----------------------|
--------------------------|--------------------------|


  E  E  E  E  E  E  E  E     E  E  E  E  E  E  E  E   
--------2-----------2-----|--0-----------------------|
--0--3-----3--0--3-----3--|--------0-----0-----1-----|
--------------------------|-----0-----0-----0-----0--|
--------------------------|--2-----------2-----------|
--------------------------|--------------------------|
--------------------------|--0-----------------------|


  E  E  E  E  E  E  E  E     E  E  E  E  E  E  E  E   
--------------------5--3--|--2--0-----------------0--|
--------1-----------1-----|--------0-----0-----0-----|
-----0-----0-----0-----0--|-----0-----2-----0-----0--|
--2-----------2-----------|--2-----------2-----------|
--0-----------------------|--------------------------|
--------------------------|--------------------------|


  E  E  E  E  E  E  E  E     E  E  E  E  E  E  E  E   
--------------------------|--------------------------|
--1-----1-----------1--1--|--3-----------------3--0--|
-----0-----0-----0-----0--|--------2--------2--------|
--2-----------2-----------|--0--3--0--3--3-----------|
--0-----------------------|-----0--------------------|
--------------------------|--1-----------------------|


  E  E  E  E  E  E  E  E     E  E  E  E  E  E  E  E   
-----------------------0--|--------------------------|
--------0-----------1-----|--------1-----------1-----|
--0-----------------0--0--|-----0-----0-----0-----0--|
-----0-----0--4--3--------|--------------------------|
--------------------------|--3-----3-----3-----------|
--0-----------------------|-----3--------------------|


  E  E  E  E  E  E  E  E     E  E  E  E  E  E  E  E   
-----------8--------7-----|-----------------0--3--7--|
--4-----1-----------------|--------0-----0-----0-----|
-----2--------------5-----|-----0-----0-----0-----0--|
--3--------------7-----7--|--2-----2-----2-----------|
--------------8-----------|-----2--------------------|
--------------------------|--0-----------------------|


   E  E  E  E  E  E  E  E     H        H           W                  
--12-----------------------|--------------------|-------------------||
---------0-----------0-----|--0--------0--------|-------------------||
------0-----0-----0--------|--0--------0--------|--0----------------||
---0-----------0-----2--4--|--------------------|--0----------------||
---------------------------|--3--------2--------|-------------------||
---------------------------|--------------------|--3----------------||




Duration Legend
---------------
W - whole
H - half
Q - quarter
E - 8th
S - 16th
T - 32nd
X - 64th
. - note dotted
|-n-|  - n-tuplets


Tablature Legend
----------------
L - tied note
x - dead note
g - grace note
(n) - ghost note
> - accentuded note
NH - natural harmonic
AH - artificial harmonic
TH - tapped harmonic
SH - semi harmonic
PH - pitch harmonic
h - hammer on
p - pull off
b - bend
br - bendRelease
pb - preBend
pbr - preBendRelease
brb - bendReleaseBend
\n/ - tremolo bar dip
\n - tremolo bar dive
-/n - tremolo bar Release up
/n\ - tremolo bar inverted dip
/n - tremolo bar return
-\n - tremolo bar Release down
S - shift slide
s - legato slide
/ -  slide into from below or out of upwards
\ -  slide into from above or out of downwards
~ - vibrato
W - wide vibrato
tr - trill
TP - tremolo picking
T - tapping
S - slap
P - pop
< - fade in
^ - brush up
v - brush down
Login or Register to remove this ad.

2 comments on Ballad of the Wind Fish

Great tab!

5

Thank you so much for making this! Ive been waiting for something like this for a while now. Thanks again!

Totally beautiful *_*

5

it seems so easy to play from your video but it not the same when I try, the tab becomes a useful exercise (hard one) to progress.. Anyway I hav no doubt than better guitarist than me (so most of them ^^) could be happy with your excellent tab.