Ads

Opening (Legend of Zelda: A Link to the Past) Guitar Tab

Submitted: Apr 07, 2021 by judgexii (Last updated: Apr 15, 2021)

0
Download | Listen
Game: Legend of Zelda: A Link to the Past
Composer(s): Koji Kondo
Style: Fingerstyle
Series: Legend of Zelda

AutoScroll: Slow | Medium | Fast
"Opening" - The Legend of Zelda: A Link to the Past
Composers: Koji Kondo
Arrangement: judgexii
Tuning: Standard EADGBe

   Intro: Play as fast as possible
e--11-9---------9-------------------------------------------------------------------------------------1-3-6-9-13-15-|
B-------11-8------11-8------11-8--------8-6-------6-4-------4---------------------------------------2---------------|
G------------10--------10-8------10-8-6-----8-6-------6-3-----6-3-----6-3-------3---------------0-3-----------------|
D-----------------------------------------------8---------5-------5-3-----5-3-----5-3-1-------3---------------------|
A-----------------------------------------------------------------------------6---------4-1-------------------------|
E-------------------------------------------------------------------------------------------3-----------------------|

   Main Theme:
   Ab				      F#9+11,13				 Emaj7	                            Absus4  Ab/C
   1 e + e 2 e + e 3 e + e 4 e + e    1 e + e 2 e + e 3 e + e 4 e + e    1 e + e 2 e + e 3 e + e 4 e + e    1 e + e 2 e + e 3 e + e 4 e + e
e--4-----4-6-----------4---4-6-4---|--4---4---6-----------4---4-6-4---|--4---4---6---------------9-------|--9-----868-----------------------|
B--4---4-----------------4-------4-|--4-4-------------------4-------4-|--4-4-----------------------------|--9-------9-----------------------|
G--5-------------------------------|--3-------------------------------|--1-------------------------------|--8-------8-----------------------|
D--6-------------------------------|--2-------------------------------|--2-------------------------------|----------10----------------------|
A--6-------------------------------|--2-------------------------------|--x-------------------------------|----------------------------------|
E--4-------------------------------|--2-------------------------------|--0-------------------------------|----------------------------------|
Login or Register to remove this ad.

1 comment on Opening

Revision - Easier to Play

Since this is an older work, wanted to revise it:

   Main Theme:
   Ab                                                         F#9+11,13                                              
   q    e  e  q    q             q  e  e  e  e  e  e          e  e  q    q    q              q    e  e  e  e  e  e      
e--4-------4--6---------------|-(6)-4-----4--6--4-----------|-4-----4----6----------------|-(6)---4-----4--6--4---------|
B-------4---------------------|--------4-----------4--------|----4------------------------|----------4-----------4------|
G--5--------------------------|-----------------------------|-3---------------------------|-----------------------------|
D-----------------------------|-----------------------------|-----------------------------|-----------------------------|
A-----------------------------|-----------------------------|-----------------------------|-----------------------------|
E--4---------------4----------|--4--------------------------|-2---------------2-----------|--2--------------------------|

   Emaj7                                                       Absus4     Ab/C               Ab       
   e  e  q    q    q             h         h                   q.     s s q.          e      w
e--4-----4----6---------------|-(6)--------9----------------|--9------8p6-8---------------|-----------------------------||
B--4--4-----------------------|-----------------------------|--9----------9---------------|-----------------------------||
G--4--------------------------|-----------------------------|--6--------------------------|-----------------------------||
D--6--------------------------|-----------------------------|--6----------6-----------6---|--6--------------------------||
A-----------------------------|-----------------------------|-----------------------------|-----------------------------||
E--0---------------0----------|--0--------------------------|-------------------------4---|--4--------------------------||