Ads

Lost Woods (Legend of Zelda: A Link to the Past) Guitar Tab

Submitted: Oct 15, 2012 by Kenkiske

5
Average: 5 (3 votes)
Download | Listen
Game: Legend of Zelda: A Link to the Past
Composer(s): Koji Kondo
Style: Transcription
Series: Legend of Zelda

AutoScroll: Slow | Medium | Fast
10/11/2012

Zelda: A Link To The Past tab

tabbled by Kenkiske.

Intro.

|----7-7-7--7-7-7------7--7--7-7p5h7--|
|----9-9-9--9-9-9-----10-10-10--------|
|-------------------------------------|   X2
|-------------------------------------|
|--7----------------8-------------(7)-|
|-----------------7------------(7)----|

Riff1

|----7-7-7-7--------------5-5-5-5-----------------|
|------------6-6-5-5-5------------5-5-3-3--3p1h3--|
|-------------------7-----------------------------|
|--5--------------------3-------------------------|
|-------------------------------------------------|
|-------------------------------------------------|

|----3-3-3-3---------------3---3-3-3-3-3-3-3--3-3-3-3-3-3-3-|
|----------------3-5-6-5-6-----1-1-1-1-1-1-1--1-1-1-1-1-1-1-|
|------------5--5-------------------------------------------|
|-----------------------------------------------------------|
|-----------------------------------------------------------|
|--4--------------------------------------------------------|

Repeat to Fade...
Login or Register to remove this ad.

1 comment on Lost Woods

Amazing

5

This tab is really awesome, but I prefer doing 5p3h5 in the second block, instead of
5 5
7

It's a bit easier to me