Ads

Hyrule Castle (Legend of Zelda: A Link to the Past) Guitar Tab

Submitted: Mar 26, 2021 by Emi (Last updated: Mar 27, 2021)

5
Average: 5 (2 votes)
Download | Listen
Game: Legend of Zelda: A Link to the Past
Composer(s): Koji Kondo
Style: Arrangement, Fingerstyle
Series: Legend of Zelda

Click here for a video example.

AutoScroll: Slow | Medium | Fast
Hyrule Castle Theme
The Legend Of Zelda : A Link To The Past
Koji Kondo
Arranged for Guitar by Emilien Delcour
Tempo = 110
Guitar

Video example : https://youtu.be/yAzlGUEyjTI


Legend
L - tied note
h - hammer on/pull off
s - slide
v - brush up
^ - brush down

     ^     ^     ^                    ^  ^                
E |--5-----3-----5-----------6--------9--5L------|--5----|
B |--3-----1-----3--------------------9--3L------|--3----|
G |--2-----0-----2--------------------9--2L------|--2----|
D |--0-----0-----0--------------------0--0L------|--0----|
A |----------------------------------------------|-------|
E |----------------------------------------------|-------|

                                                          
----------------------------|----------------------------|
----------------------------|----------------------------|
-----0-----------------0----|----------------------------|
--------0-----0-------------|--0-----------3--5--6--3----|
-----------------0----------|-----3--5--6----------------|
--3--------1--------3-------|----------------------------|

                             
----------------------------|
----------------------------|
-----0-----------------0----|
--------0-----0-------------|
-----------------0----------|
--3--------1--------3-------|

                                                     
----------------------------------------------------|
----------------------------------------------------|
----------------------------------------------------|
--0-----------0-----0-----------3-------------------|
--------5--------5--------5-----------6-----4-------|
----------------------------------------------------|

                                                          
----------------------------|----------------------------|
----------------------------|----------------------------|
-----3--------2--------3----|--------------------3-------|
--------0-------------------|--0-----------3--5-----3----|
-----------------0----------|-----3--5--6----------------|
--3--------1--------3-------|----------------------------|

                             
----------------------------|
----------------------------|
-----3--------2--------0----|
--------0-------------------|
-----------------0----------|
--3--------1--------3-------|

                                                     
----------------------------------------------------|
----------------------------------------------------|
----------------------------------------------------|
--0-----------0-----0-----------3-------------------|
--------5--------5--------5-----------6-----4-------|
----------------------------------------------------|

                             
--3-------------------------|
--------------3-------------|
-----0-----------2-----0----|
--------0-------------------|
----------------------------|
--3--------1--------3-------|

                                                     
--------------------3-----4-----6-----------6-------|
--------------------------------------7-------------|
--------------------------------0-------------------|
--0-----------0-------------------------------------|
--------5--------5--------------------------6-------|
----------------------------------------------------|

                             
--3-------------------------|
--------------3-------------|
-----0-----------2-----0----|
--------0-------------------|
----------------------------|
--3--------1--------3-------|

                                                     
----------------------------------------------------|
--------------------6-----6-------------------------|
--3-----7-----7-----------------8--8--8-----6-------|
-----------0-----0----------------------------------|
----------------------------------------------------|
----------------------------------------------------|

                             
--3-------------------------|
--------------3-------------|
-----0-----------2-----0----|
--------0-------------------|
----------------------------|
--3--------1--------3-------|

                                                     
--------------------3-----4-----6-----------6-------|
--------------------------------------7-------------|
--------------------------------0-------------------|
--0-----------0-------------------------------------|
--------5--------5--------------------------6-------|
----------------------------------------------------|

                             
--3-------------------------|
--------------3-------------|
-----0-----------2-----0----|
--------0-------------------|
----------------------------|
--3--------1--------3-------|

                                                     
----------------------------------------------------|
--------------------6-----6-------------------------|
--3-----7-----7-----------------8--8--8-----6-------|
-----------0-----0----------------------------------|
----------------------------------------------------|
----------------------------------------------------|

                                                          
--8-------------------------|----------------------------|
-----8--------8-------------|----------------------------|
--------8--------7----------|-----10-8-------------------|
----------------------------|--10-------11-9--10---------|
-----------------------10---|-----------0--------10------|
--8--------6--------8-------|-----------------8-----8----|

                             
-----------------------15---|
-----------------------15---|
----------------------------|
-----------------10---------|
----------------------------|
--6-----6--8-----8----------|

                                                     
--15----------15----15----18----18----16-15-14------|
--15----------15----15------------------------------|
----------------------------------------------------|
----------------------------------------------------|
----------------------------------------------------|
----------------------------------------------------|

                             
--3-------------------------|
--------------3-------------|
-----0-----------2-----0----|
--------0-------------------|
----------------------------|
--3--------1--------3-------|

                                                     
--------------------3-----4-----6-----------6-------|
--------------------------------------7-------------|
--------------------------------0-------------------|
--0-----------0-------------------------------------|
--------5--------5--------------------------6-------|
----------------------------------------------------|

                             
--3-------------------------|
--------------3--------3----|
-----0-----------2-----2----|
--------0--------------0----|
----------------------------|
--3--------1--------3-------|

                                                     
----------------------------------------------------|
--3-----------3-----3-----6-----6-----4-------------|
--2-----------2-----2--------------------7--6-------|
--0-----------0-----0-------------------------------|
----------------------------------------------------|
----------------------------------------------------|

  ^                                                  
--1-----------------------------------------6-------|
--1-----------------4h-3--------3-----4-------------|
--2-----------------------5-------------------------|
--3-------------------------------------------------|
--3-------------------------------------------------|
--1-------------------------------------------------|

                                                                                
--3-----------------------------------------------------------------------------
--3-----------------------------------3-----3--------------3-----------4--------
--3-----------------------------------------------------------------------------
--5-----------------------------------------------------------------------------
--5--------------------------------------5-----5--------------------------------
--3-----------------------------------------------------------------------------

                       ^                                                  
--------------------|--1-----------------------------------------6-------|
---4--6--4--3-------|--1-----------------4h-3--------3-----4-------------|
--------------------|--2-----------------------5-------------------------|
--------------------|--3-------------------------------------------------|
--------------------|--3-------------------------------------------------|
--------------------|--1-------------------------------------------------|

                                                                                
--3-----------------------------------------------------------------------------
--3-----------------------------------3-----3--------------3-----------4--------
--3-----------------------------------------------------------------------------
--5-----------------------------------------------------------------------------
--5--------------------------------------5-----5--------------------------------
--3-----------------------------------------------------------------------------

                       ^                                                  
--------------------|--1-------------------------------------------------|
---4--6--4--3-------|--1-----------------4h-3--------3-----4-----6-------|
--------------------|--2-----------------------5-------------------------|
--------------------|--3-------------------------------------------------|
--------------------|--3-------------------------------------------------|
--------------------|--1-------------------------------------------------|

  ^                                                  
--6-------------------------------------------------|
--6-----------------9--8--------8-----9-----11------|
--7-----------------------10------------------------|
--8-------------------------------------------------|
--8-------------------------------------------------|
--6-------------------------------------------------|

                                                     
--5-------------------------------------------------|
--6-----------------11-10-------10----11----13------|
--5-----------------------12------------------------|
--7-------------------------------------------------|
--8-------------------------------------------------|
--5-------------------------------------------------|

  ^  v     ^     ^  v                                             
--10-10----10----10-10L-----|--10---|----------------------------|
--10-10----10----10-10L-----|--10---|----------------------------|
--11-11----11----11-11L-----|--11---|--------0-------------------|
--12-12----12----12-12L-----|--12---|-----------0-----------0----|
--12-12----12----12-12L-----|--12---|--------------3--0----------|
--10-10----10----10-10L-----|--10---|--3-----------------6-------|

                             
----------------------------|
----------------------------|
--------6-------------------|
-----------0----------------|
--4-----------0-----1-------|
----------------------------|

                                                     
----------------------------------------------------|
--------------------------1-------------------------|
--------------------0-----------0-------------------|
--------------1-------------------------------------|
--3-----------------------------------1-------------|
-----------------------------------------------2L---|

                             
----------------------------|
----------------------------|
-----3--------0--0--0-------|
----------------------------|
----------------------------|
--2-----3-------------------|

                                                     
--------------------------------5-----6-----10------|
--8-------------------------------------------------|
--0-----------0--0--0-----0-----------0-------------|
----------------------------------------------------|
----------------------------------------------------|
----------------------------------------------------|

                                                     
--9-------------------------------------------------|
--------------------------10------------------------|
----------------------------------------------------|
--11----------11-11-11----11----------11------------|
----------------------------------------------------|
----------------------------------------------------|

                                                     
--8-------------------------------------------------|
--------------------------11----------11------------|
--------------------------------11------------------|
--10----------10-10-10----10----------10------------|
----------------------------------------------------|
----------------------------------------------------|

                                                     
----------------------------------------------------|
--8-----------------------8-----------------3-------|
--0-----------------7-----------0--2--3--5----------|
--------------0--8----------------------------------|
----------------------------------------------------|
----------------------------------------------------|

  ^                                                  
----------------------------------------------------|
--4-----------------4--4--4-----------------4-------|
--3-----------------------------5-------------------|
--5-----------------------------------5-------------|
--3-----------3-----------3-----------3-------------|
----------------------------------------------------|

  ^                                                  
----------------------------------------------------|
--3-----------------3--3--3-------------------------|
--3-------------------------------------------------|
--3-----------------------------------3-------------|
--1-----------1-----------1-----------1-------------|
----------------------------------------------------|

  ^                                                  
----------------------------------------------------|
--1-----------------1--1--1-----------------1-------|
--0-----------------------------0-------------------|
--1-----------------------------------1-------------|
--3-----------3-----------3-----------3-------------|
----------------------------------------------------|

  ^                                                  
----------------------------------------------------|
----------------------------------------------------|
--3-----------------3--3--3-------------------------|
--5-----------------------------------5-------------|
----------------------------------------------------|
--6-----------6-----------6-----------6-------------|

  ^                                                  
----------------------------------------------------|
--4-----------------4--4--4-----------------4-------|
--3-----------------------------5-------------------|
--5-----------------------------------5-------------|
--3-----------3-----------3-----------3-------------|
----------------------------------------------------|

  ^                                                  
----------------------------------------------------|
--3-----------------3--3--3-----------------3-------|
--3-----------------------------3-------------------|
--3-----------------------------------3-------------|
--1-----------1-----------1-----------1-------------|
----------------------------------------------------|

  ^                                                  
----------------------------------------------------|
--1-----------------1--1--1-----------------1-------|
--2-----------------------------2-------------------|
--3-----------------------------------3-------------|
--0-----------0-----------0-----------0-------------|
----------------------------------------------------|

  ^                                                    ^
--------------------3--3--3-------------------------|--3----||
--------------------------------3-----------3-------|--3----||
--3-----------------------------------3-------------|--3----||
--5-------------------------------------------------|--5----||
--5-------------------------------------------------|--5----||
--3-----------3-----------3-------------------------|--3----||

Login or Register to remove this ad.