Ads

Hyrule Castle (Legend of Zelda: A Link to the Past) Guitar Tab

Submitted: Apr 15, 2012 by Agahnim (Last updated: Apr 16, 2012)

5
Average: 5 (3 votes)
Download | Listen
Game: Legend of Zelda: A Link to the Past
Composer(s): Koji Kondo
Style: Arrangement, Fingerstyle
Series: Legend of Zelda

Click here for a video example.

AutoScroll: Slow | Medium | Fast
Hyrule Castle
The Legend of Zelda: A link to the Past
Composed by: Koji Kondo
Arranged by: Ivo Koporcic
April 15, 2012
CAPO on 3


Legend
L - tied note


        Intro

e |------0-0-0-0-----------0-----------1--------4--|0-----------------------------------------------|
B |------0-----0-----3-----0-----------1--------4--|0-----------------------------------------------|
G |------------------2-----------------------------|------------------------------------------------|
D |2-----------------------------------------------|------------------------------------------------|
A |2-----------------------------------------------|------------------------------------------------|
E |0-----------------------------------1-----------|0--------------------------------------------0--|


e |------0-----------0-----------------------------|------0-----0-----0--0--1-----1-----1-----------| \
B |------0-----------0-----3-----------3-----5-----|------0-----------------1-----------1-----3-----|  \
G |------------------------2-----------2-----4-----|------------------------------------------------|   | x2
D |------------------------------------------------|------------------------------------------------|   |
A |------------------------2-----------------------|------------------------------------------------|  /
E |0-----------------------------------------------|0-----------------------1-----------1-----------| /

        Part A

e |0-----------------------------------------------|------------------------------3--------------3--| \
B |0-----------------------0-----------------------|------------------5--5--6-----------------4-----|  \ 
G |------------------------0-----------------------|------------------------------------------------|   \
D |------------------------------------------------|------------------------------------------------|    |
A |------2-----------2-----0-----------0-----2-----|------2-----------2-----3-----------3-----------|    |
E |0-----------------------------------------------|0-----------------------------------------------|    |  
                                                                                                         | x2 
                                                                                                         | 
e |0-----------------------------------------------|------------------------------------------------|    |
B |0-----------------------0-----------------0-----|------0-----0-----0--1--3-----3-----1--0--------|    |
G |------------------------0-----------2-----------|------------------------------------------2-----|    |
D |------------------------------------------2-----|------------------------3-----------1-----------|   /
A |------2-----------2-----0-----------------------|------2-----------------------------------------|  /
E |0-----------------------------------------------|0-----------------------------------------------| /


e |5-----------------------0-----------------------|------------------5-----10----8-----------6-----|
B |5-----------------------0-----------------------|------------------5-----6--------------------8--|
G |------------------------------------------------|------------------------------------------------|
D |------------------------------------------------|------------------------------------------------|
A |0-----0-----------0-----------------------0-----|------------------------------------------------|
E |------------------------3-----------3-----------|------5-----5-----------6-----------6-----------|


e |5-----------------------0-----------------0-----|------0-----0-----0--1--3-----3-----1--0--------|
B |5-----------------------0-----------3-----------|------------------------------------------3-----|
G |------------------------------------------------|------------------------3-----------1-----------|
D |------------------------------------------------|------------------------------------------------|
A |0-----0-----------0-----------------------0-----|------0-----------------------------------------|
E |------------------------3-----------3-----------|------------------------------------------------|


e |0-----------------------------------------------|------------------------------3--------------3--|
B |0-----------------------0-----------------------|------------------5--5--6-----------------4-----|
G |------------------------0-----------------------|------------------------------------------------|
D |------------------------------------------------|------------------------------------------------|
A |------2-----------2-----0-----------0-----2-----|------2-----------2-----3-----------3-----------|
E |0-----------------------------------------------|0-----------------------------------------------|


e |0-----------------------------------------------|------------------------------------------------|
B |0-----------------------0-----------------0-----|------0-----0-----0--1--3-----3-----1--0--------|
G |------------------------0-----------2-----------|------------------------------------------2-----|
D |------------------------------------------2-----|------------------------3-----------1-----------|
A |------2-----------2-----0-----------------------|------2-----------------------------------------|
E |0-----------------------------------------------|0-----------------------------------------------|

        Part B

e |------------------------------------------5-----|0-----------------------------------------------|
B |3-----------------1--0--------0-----1-----------|0-----------------0--0--0-----1-----3---1---0---|
G |2-----------------------2-----------------------|------------------------1-----------------------|
D |------------------------------------------------|------------------------------------------------|
A |------------------------3-----------------------|------------------2-----2-----------------------|
E |1-----------------1-----------------------------|0-----------------------------------------------|


e |------------------------------------------5-----|0-----------------------------------------------|
B |3-----------------1--0--------0-----1-----------|0-----------------0--0--0-----1-----3---1---0---|
G |2-----------------------2-----------------------|------------------------1-----------------------|
D |------------------------------------------------|------------------------------------------------|
A |------------------------3-----------------------|------------------------2-----------------------|
E |------1-----------1-----------------------------|0--------0--------0-----------------------------|


e |------------------------------------------0-----|3-----------------1--0--------0-----1-----3-----|
B |3-----------------1--0--------0-----3-----------|0-----------------------3-----------1-----------|
G |0-----------------------2-----------2-----------|------------------------2-----------------------|
D |------------------------------------------------|------------------------------------------------|
A |------------------------------------------------|------------------------------------3-----------|
E |3-----------------3-----3-----------------------|1-----------------1-----1-----------------------|


e |5-----------------3--2--------2-----3-----5-----|7-----------------------------------------------|
B |2-----------------------5-----------2-----------|------------------------4-----------------------|
G |------------------------2-----------------------|9-----------------------2-----------------------|
D |------------------------------------------------|------------------------------------------------|
A |------------------------------------------------|------------------------2-----------2-----------|
E |2-----------------2-----2-----------2-----------|7-----------------------------------------------|

        Part C

e |------------------------------------------------|------------------------------------------------|
B |0-----------0---0---0---0-----------0-----------|2-----------2---2---2---2-----------2-----------|
G |0-----------0-----------0-----------0-----------|3-----------3-----------3-----------3-----------|
D |------------------------------------------------|------------------------------------------------|
A |------------------------------------------2-----|1-----------------------------------------------|
E |0-----------------------------2-----3-----------|------------------------2-----------------------|


e |------------------------------------------------|------------------------------------------------|
B |1-----------1---1---1---1-----------------------|0-----------0---0---0---0-----------0-----------|
G |2-----------2-----------0-----------------------|0-----------0-----------0-----------0-----------|
D |------------------------------------------------|------------------------------------------------|
A |0-----------------------------------------------|------------------------------------------------|
E |------------------------3-------0-------3-------|0-----------------------------0-----------0-----|


e |0-----------------------------2-----3-----7-----|6-----------------------2-----------------------|
B |0-----------------------------0-----------------|------------2-----------------------------------|
G |------------------0-----------------------------|------3-----------3-----------------3-----------|
D |------------2-----------2-----------------------|------------------------------4-----------4-----|
A |------2-----------------------------------------|------------------------------------------------|
E |0-----------------------------------------------|2-----------------------2-----------------------|


e |5-----------------------3---------------3-------|0--------------------------------------3--5--7--|
B |--------------------------------4---------------|------------------0-----------3--5--6-----------|
G |------------5-------------------2---------------|------------0-----------0-----------------------|
D |------7-----------7-----------------------------|------2-----------------------------------------|
A |------------------------2---------------2-------|------------------------------------------------|
E |5-----------------------------------------------|0-----------------------------------------------|

        Part D

e |8-----------------8--8--8-----5-----------8-----|7-----------------------3-----------------------|
B |5-----------------5-----5-----------5-----------|5-----------0---0---0---5-----------------------|
G |------------------------------------5-----------|------------0-----------------------------------|
D |------------------------------------------------|------------------------------------------------|
A |0-----------------------0-----------0-----------|------------------------------------------------|
E |------------------------------------------------|3-----------------------------------3-----------|


e |5-----------------5--5--5-----0-----------5-----|3-----------0---0---0---0-----------0-----------|
B |5-----------------------5-----------------------|5-----------0-----------0-----------0-----------|
G |------------------------------------5-----------|------------------------------------------------|
D |------------------------------------------------|------------------------------------------------|
A |------------------------3-----------3-----------|------------------------------------------------|
E |2-----------------------------------------------|0-----------------------------0-----------0-----|


e |8-----------------8--8--8-----5-----------8-----|7-----------------7--7--7-----------------7-----|
B |5-----------------------5-----------5-----------|------------------------------8-----------------|
G |------------------------------------------------|7-----------------------7-----------9-----------|
D |------------------------------------------------|------------------------------------------------|
A |0-----------------0-----0-----------------------|------------------------------------------------|
E |------------------------------------------------|0-----------------0-----0-----------------------|


e |5-----------------5--5--5-----0-----------5-----|
B |------------------------------------------------|
G |5-----------------------5-----------5-----------|
D |------------------------------------------------|
A |------------------------------------------------|
E |2-----------------2-----2-----------------------|

        Outro

e |3-----------------------------------------------|------0-----0-----0--0--1-----1-----1-----------|
B |0-----5-----------5-----3-----------3-----5-----|------0-----------------1-----------1-----3-----|
G |------4-----------4-----2-----------2-----4-----|------------------------------------------------|
D |------------------------------------------------|------------------------------------------------|
A |------------------------2-----------------------|------------------------------------------------|
E |0-----------------------------------------------|0-----------------------1-----------1-----------|


e |------0-----------0-----------------------------|------0-----0-----0--0--1-----1-----1-----------|
B |------0-----------0-----3-----------3-----5-----|------0-----------------1-----------1-----3-----|
G |------------------------2-----------2-----4-----|------------------------------------------------|
D |------------------------------------------------|------------------------------------------------|
A |------------------------2-----------------------|------------------------------------------------|
E |0-----------------------------------------------|0-----------------------1-----------1-----------|


e |0-----0-----------0-----0-----------0-----0-L---|0-----------------------------------------------|
B |0-----0-----------0-----0-----------0-----0-L---|0-----------------------------------------------|
G |2-----2-----------2-----2-----------2-----1-L---|1-----------------------------------------------|
D |------------------------------------------------|------------------------------------------------|
A |------------------------------------------------|------------------------------------------------|
E |0-----0-----------0-----0-----------0-----0-L---|0-----------------------------------------------|


Login or Register to remove this ad.

9 comments on Hyrule Castle

Lol the MIDI didn't export correctly.

http://www.youtube.com/watch?v=Z1_gFq1WZC4

A video of the right speed, the MIDI export didn't have the tempo

It looks hard to read with

It looks hard to read with all the tied notes written like that :-( Maybe you could get rid of those tied notes in the text version?

I'll do it, and also fix the

I'll do it, and also fix the text because something is wrong with the TXT export in my GP6, that wasn't wrong in GP5.

I don't think GP6 has usable

I don't think GP6 has usable text export :-( If you don't mind, I might try hand-formatting it!

You can export txt with

You can export txt with gp6...you just have to be sure that the music is highlighted. GP6 will only export whatever you select, so if you just choose export ascii you will end up with an empty txt file.

Yeah that's a teeny bit

Yeah that's a teeny bit confusing.

Okay, I formatted it :-) Text

Okay, I formatted it :-)

Text version of your tab

You can update the tab with whatever text version you want of course, but OCD made me make that text file!

Sure I would like to use that

Sure I would like to use that Txt you generated, how can I upload it, should i post it again? or can it be modified directly by a moderator?

Can you teach me how to make that kind of .txt from a .gpx file? I'll post more tabs I have pending but would like to learn to do it properly before messing everything more...

Also the midi export in Gp6, any know fixes?...

Thanks!

I made it by editing your TXT

I made it by editing your TXT file by hand. I don't have GP6 @[email protected]

I'll post the edit, I just didn't want to presume and change it without asking xD I thought there was a chance you wouldn't like it!

I don't know how to fix the MIDI export! Sorry!

EDIT: Maybe export to GP5, then export the MIDI from GP5?