Hyrule Castle (Legend of Zelda: A Link to the Past) Ukulele Tab

Submitted: Feb 03, 2011 by pixelmuzik (Last updated: Feb 03, 2011)

0
Download | Listen
Game: Legend of Zelda: A Link to the Past
Composer(s): Koji Kondo
Style: Transcription
Series: Legend of Zelda

AutoScroll: Slow | Medium | Fast
Composed by: Koji Kondo
Game: The Legend of Zelda A Link to the Past
Tabbed by: pixelmuzik (Timothy Woina)
Contact at: [email protected]  

B|---------------------0----------------------------------------
D|----------3-------------------------------0---0---------0-----
A|------------------------------------------------3----3--------
G|---0-0-0-----0----1----0--------------------------------------

B|--------------------------------------------------------------
D|----0--0--0-0-0--0--1-----0--5---5--3----3--5----5--5--5-5-5-5
A|----------------------4------5---5--3----3--5----5--5--5-5-5-5
G|--------------------------------------------------------------

B|------------------------------------------
D|--5--1--4---------0----------------4------
A|--5-----4---------------------------------
G|-----1----0----------------0-1-3-----3-0--

B|-------------------------------------------
D|---0-----------------0------------4--------
A|-------------------------------------------
G|--------------0-----------0--1-3-----3-0---

B|-----------1---------1-5---4-2-0-1
D|---0------------------------------
A|----------------------------------
G|----------------0-----------------

B|-------------------------------------------
D|----------------------0--------------4-----
A|-------------------------------------------
G|--0--------------0-----------0-1-3-----3-0-

B|----------------------------------1--------3-4--5-4-
D|---0-------------3-----1-0-1---3--------------------
A|----------------------------------------------------
G|-------------------------------------0--------------

B|--3--------------------1-------3-4-5-4-3-----------
D|-----3-----1-0-1----3---------------------3----1-0-
A|---------------------------------------------------
G|--------------------------0------------------------


B|----------------------------------------1-------------------
D|-------0--3-----------------3-------------------------------
A|---3--------------------------------------------------------
G|-------------0--3------1-0-----0--1--3-------3--2--0--2--3--

B|---1--3--------------------------3-2---
D|-------------4-------------------------
A|---------------------------------------
G|------0-------------0--------2-3-------

B|---1-----------------------4-----4--1-
D|--------------4-----------------------
A|--------------------------------------
G|2----------3-----3--0-----------------

B|-------4--3------------1------1-------1---
D|-----------------------------------1------
A|------------------------------------------
G|---0-----------------------------0-------3

B|---4---------4--1-----4--3-------3--------3--1---------
D|-----------------------------3----------------------4--
A|-------------------------------------------------------
G|-------------------0-------3---------------------2-----

B|-------1------------------------------------------
D|---1---------------------5--5--3----3--5----5--5--
A|-------------------------5--5--3----3--5----5--5--
G|----------3---------------------------------------

B|------------1---
D|--5-5-5--5--1--4
A|--5-5-5--5-----4
G|----------------
Login or Register to remove this ad.

1 comment on Hyrule Castle

GCEA Tuning,

|------------------------------------------02----------------------------------------------------03-|
|--------------------01-----------------------------------------------------------------------------|
|------------------------------------------------------------------------------------02------02-----|
|------00--00--00----------00--------01--------00---------------------------------------------------|


-------03------------------------------------------------------------04---------------------------|
--------------------------------------------------------------------------------------------------|
-------------02------------------02----02----02--02--02----02----03----------02----07------07-----|
-----------------------------------------------------------------------------------07------07-----|


----------------------------------------------------------------------------------------------------|
---------------------------------------------------------------04-----------------------------------|
-05--------05----07--------07----07----07--07--07--07----07----03----06------------------02---------|
-05--------05----07--------07----07----07--07--07--07----07----------06--00-------------------------|


---------------01----------01-----------------------------------------------------------------------|
-----------------------02---------------------------------------------------------------------------|
-------------------------------------------02----------------------------------02-------------------|
-------00--01------------------00--------------------------------00----------------------00----01---|


-01----------01--------------------------------03------------------03--07------06--04--02--03-------|
-------02-------------------------------------------------------------------------------------------|
-------------------------------02-------------------------------------------------------------------|
-----------------00--------------------------------------00--------------------------------------00-|


-----------------------------------------------------------01----------01---------------------------|
-------------------------------------------------------------------02-------------------------------|
-------------------------------------02----------------------------------------------02-------------|
---------------------------00----------------------00--01------------------00-----------------------|


-------------------------------------------------03----------------05--06----07--06------05---------|
---------------01--------------------------01--------------------------------------------------01---|
---------------------------03--02--03---------------------------------------------------------------|
-------------------------------------------------------00-------------------------------------------|


-------------------------------03--------------05--06--07--06--05----------------------------03-----|
-------------------------01------------------------------------------01-----------------------------|
-------03--02--03--------------------------------------------------------------03--02---------------|
-------------------------------------00-------------------------------------------------------------|


---------------------01----------------------------------------01----03--------01----00----------00-|
---------01----------------------------------01-----------------------------------------------------|
---02-----------------------------------------------------------------------------------------------|
---------------00------------------01--00----------00----01--------------------------------00-------|


---01----------03--------------------------------------------------00--01--05--04------00----03-----|
-----------------------------------02---------------------------------------------------------------|
---------------------07-----------------------------------------------------------------------------|
---------------------07--------------------------00-------------------------------------------------|


-----------01----------01------------------06----------06----03----------------06----05-------------|
-----------------02---------------------------------------------------------------------------------|
----------------------------------------------------------------------------------------------------|
-----------------------------00----------------------------------------00---------------------------|


-----------03------------03--------------03----01------06------------------06----03----------06-----|
----------------------------------------------------------------------------------------------------|
-----------------------------------03---------------------------------------------------------------|
-------------------------------00------------------------------------------------------00-----------|


-05--01----------05----------------05----03------00------------------------03----01-----------------|
---------01--------------------------------------------02-------------------------------------------|
-------------------------------------------------------------------03-------------------------------|
----------------------------------------------------------------------------------------------------|


-------------------------------------------------------------------------------------03------|
---------------------------------------------------------------------------------------------|
-----------07----07----05--------05----07--------07----07--------07--07--07----07----03----06|
-----------07----07----05--------05----07--------07----07--------07--07--07----07----------06|