Ads

Agahnim (Legend of Zelda: A Link to the Past) Guitar Tab

Submitted: Jul 18, 2014 by JordanVS (Last updated: Jul 19, 2014)

5
Average: 5 (3 votes)
Download | Listen
Game: Legend of Zelda: A Link to the Past
Composer(s): Koji Kondo
Style: Arrangement, Fingerstyle
Series: Legend of Zelda

This song is also called Priest

AutoScroll: Slow | Medium | Fast
Agahnim                                               
The Legend of Zelda: A Link to the Past
Koji Kondo
JordanVS


-2/2
-Tempo : 120


     H        Q.     S S    H        Q.     S S    H        Q.     S S    H        H         
E||----------------------|----------------------|----------------------|--0-----------------|
B||----------------------|--0--------L----------|--3--------L--------2-|--0-----------------|
G||--3--------L--------2-|--------------------3-|--2--------L--------1-|--------------------|
D||--3--------L--------2-|--4--------L--------3-|----------------------|--------------------|
A||--3-------------------|--3-------------------|--3-------------------|--3-----------------|
E||-----------3------L---|-----------3------L---|-----------3------L---|-----------3--------|


  H        Q.     S S    H        Q.     S S    H        Q.     S S    H        H         
----------------------|----------------------|----------------------|--0-----------------|
----------------------|--0--------L----------|--3--------L--------2-|--0-----------------|
--3--------L--------2-|--------------------3-|--2--------L--------1-|--------------------|
--3--------L--------2-|--4--------L--------3-|----------------------|--------------------|
--3-------------------|--3-------------------|--3-------------------|--3-----------------|
-----------3------L---|-----------3------L---|-----------3------L---|-----------3--------|


  S H.           E.     S H.           E.     W                   W                 
---------------------|---------------------|--1----------------|--0----------------|
--4-L------------L---|--3-L------------L---|--1----------------|--0----------------|
--3-L------------L---|--2-L------------L---|-------------------|-------------------|
----1------------L---|----0------------L---|-------------------|-------------------|
---------------------|---------------------|-------------------|-------------------|
--2------------------|--1------------------|--4----------------|--3----------------|


  W                   W                   W                   W                   W                 
--3----------------|--2----------------|--5----------------|--4----------------|--7----------------|
--3----------------|--2----------------|--5----------------|--4----------------|--7----------------|
-------------------|-------------------|-------------------|-------------------|-------------------|
-------------------|-------------------|-------------------|-------------------|-------------------|
--1----------------|--0----------------|--3----------------|--2----------------|--5----------------|
-------------------|-------------------|-------------------|-------------------|-------------------|


  W                  
--L----------------||
--L----------------||
-------------------||
-------------------||
--L----------------||
-------------------||




Duration Legend
---------------
W - whole
H - half
Q - quarter
E - 8th
S - 16th
T - 32nd
X - 64th
. - note dotted
|-n-|  - n-tuplets


Tablature Legend
----------------
L - tied note
Login or Register to remove this ad.

1 comment on Agahnim

Very nice tab. Working it

5

Very nice tab. Working it up. The transition from measure 2 to 3 is the hardest.

I would add that the tempo accelerates over the whole note chords, and then returns to normal going back to the beginning.