Login or Register to remove this ad.

Lorule Main Theme (Milk Bar) (Legend of Zelda: A Link Between Worlds) Guitar Tab

Submitted: Jun 20, 2015 by hslesperance

0
Download | Listen
Game: Legend of Zelda: A Link Between Worlds
Composer(s): Ryo Nagamatsu
Style: 2 or more instruments, Fingerstyle, Transcription
Series: Legend of Zelda

AutoScroll: Slow | Medium | Fast
Lorule Main Theme (Milk Bar)
Legend of Zelda: A Link Between Worlds
Composed by Ryo Nagamatsu
Tabbed by hslesperance
6/20/15

Standard Tuning


Guitar 1

  W                 W                 W                 H.           E  e
|-----------------|-----------------|-----------------|--------------------|
|-----------------|-----------------|-----------------|--------------------|
|-----------------|-----------------|-----------------|----------------14--|
|-----------------|-----------------|-----------------|--------------------|
|-----------------|-----------------|-----------------|--------------------|
|-----------------|-----------------|-----------------|--------------------|


   T  T  T  T  E  +Q.     E  E  E    S  S  E  +H       E  E
|-12h14p12h14p12-(12)----------17-|-14h15p14-(14)-----------|
|---------------------------17----|----------------------15-|
|------------------------14-------|-------------------------|
|---------------------------------|-------------------------|
|---------------------------------|-------------------------|
|---------------------------------|-------------------------|


   T  T  E.    S  S  E  +Q    E  E    T  T  S.   T  E.     +H         S  S
|-12h14p12-------------------------|---------------------------------------|
|-------------------------------15-|---------------------------------------|
|-------------14h16p14-(14)--------|-16h17p16p==14h16-----(16)----------14-|
|----------------------------------|---------------------------------17----|
|----------------------------------|---------------------------------------|
|----------------------------------|---------------------------------------|


   +T  S    T  +E   +H.             +H.           Q
|--------------------------------|--------------------|
|--------------------------------|--------------------|
|-(14)16p==14-(14)-(14)----------|-(14)---------------|
|--------------------------------|--------------------|
|--------------------------------|--------------------|
|--------------------------------|--------------------|


  W                 W
|-----------------|---------------------|
|-----------------|---------------------|
|-----------------|---------------------|
|-----------------|---------------------|
|-----------------|---------------------|
|-----------------|---------------------|


  W                W
|----------------|----------------------|
|----------------|----------------------|
|----------------|----------------------|
|----------------|----------------------|
|----------------|----------------------|
|----------------|----------------------|


  W                 H.            E  S  S
|-----------------|-----------------12-14-|
|-----------------|-----------------------|
|-----------------|-----------------------|
|-----------------|-----------------------|
|-----------------|-----------------------|
|-----------------|-----------------------|


   T  S  T  H       E  E  E    S   S  E   +H         E  S  S
|-17p15h17p15------------15-|-14-----------------------------|
|---------------------17----|-----17-15--(15)----------13-15-|
|---------------------------|--------------------------------|
|---------------------------|--------------------------------|
|---------------------------|--------------------------------|
|---------------------------|--------------------------------|


   T  T  S  +H        E  E  E    S  S  T  T  S  +H        E  S  S
|-12h13p12-(12)------------12-|-----------------------------12-14---|
|-----------------------------|-15p13p12h13p12-(12)-----------------|
|-----------------------14----|-------------------------------------|
|-----------------------------|-------------------------------------|
|-----------------------------|-------------------------------------|
|-----------------------------|-------------------------------------|


   T  T  E.    +H        E  E    S  S  S  +H.             T  T
|-15h17p15----(15)---------15-|-14-15-17-(17)------------19p17p|
|-----------------------17----|--------------------------------|
|-----------------------------|--------------------------------|
|-----------------------------|--------------------------------|
|-----------------------------|--------------------------------|
|-----------------------------|--------------------------------|


   H.            E  E    S  S  E   +H        E.    T  T
|-15------------14-15-|-14-12-14--(14)---------------14-|
|---------------------|---------------------------12----|
|---------------------|---------------------------------|
|---------------------|---------------------------------|
|---------------------|---------------------------------|
|---------------------|---------------------------------|


   T  T  E.    +H.              +H.           Q
|-15p14p12----(12)-----------|-(12)---------------|
|----------------------------|--------------------|
|----------------------------|--------------------|
|----------------------------|--------------------|
|----------------------------|--------------------|
|----------------------------|--------------------|


   S  S  S  E     +Q.            S  Q       S  S  S  E    +Q.         S Q
|-17-------------------------------17----|-15-------------------------------|
|----17-15-17----(17)--------------------|----17-15-17---(17)---------------|
|----------------------------------------|----------------------------------|
|----------------------------------------|----------------------------------|
|----------------------------------------|----------------------------------|
|----------------------------------------|----------------------------------|


   S  S  S  E    +Q.         S  Q      S  S  S  E    +Q.         S Q
|-15---------------------------15---|-------------------------------------|
|----15----15---(15)----------------|-18----------------------------------|
|-------17--------------------------|----17-16-17---(17)------------------|
|-----------------------------------|-------------------------------------|
|-----------------------------------|-------------------------------------|
|-----------------------------------|-------------------------------------|


   S  S  S  E    +Q.         S  Q      S  S  S  S  +H           a  Q
|-----------------------------------|-17-----------------------15h17---|
|-18---------------------------17---|----17-15-17-(17)-----------------|
|----16-15-16---(16)----------------|----------------------------------|
|-----------------------------------|----------------------------------|
|-----------------------------------|----------------------------------|
|-----------------------------------|----------------------------------|


   W                    +H.               Q
|-19-----------------|-(19)---------------------|
|--------------------|--------------------------|
|--------------------|--------------------------|
|--------------------|--------------------------|
|--------------------|--------------------------|
|--------------------|--------------------------|


  H       E  e  e  e    S  S  Q    e  e  e  e  e
|-----------------17-|-14h15p14------------------|
|--------------17----|------------15-17-15-------|
|-----------14-------|---------------------17-16-|
|--------------------|---------------------------|
|--------------------|---------------------------|
|--------------------|---------------------------|


  H       E  e  e  e    S  S  Q    e  e  e  e  e
|-----------------17-|-14h15p14---------14-15-17-|
|--------------17----|------------15-17----------|
|-----------14-------|---------------------------|
|--------------------|---------------------------|
|--------------------|---------------------------|
|--------------------|---------------------------|

         >
  E      E       +H.         +H     H
|-------17------(17)------|-(17)----------*|
|-------------------------|---------------*|
|-------------------------|---------------*|
|-------------------------|---------------*|
|-------------------------|---------------*|
|-------------------------|---------------*|




Guitar 2

  H       H         H       H         H       H         H       H
|-0-------2-------|-3-------2-------|-0-------2-------|-3-------2--------|
|-------1-------3-|-------3-------3-|-------1-------3-|-------3----------|
|-----2-------2---|-----2-------2---|-----2-------2---|-----2-------4-2--|
|---2-------2-----|---2-------2-----|---2-------2-----|---2-------2------|
|-0-------0-------|-0-------0-------|-0-------0-------|-0-------0--------|
|-----------------|-----------------|-----------------|------------------|
  E E E E E E E E   E E E E E E E E   E E E E E E E E   E E E E E E E E


  W                       W                       W                       Q     Q    Q    Q
|-0---------------------|-2---------------------|-0---------------------|-------0----1------|
|----------1----------1-|----------3----------3-|----------1----------1-|-3---------------3-|
|-------2----------2----|-------2----------2----|-------2----------2----|-------0---------0-|
|----2----------2-------|----2----------2-------|-----------------------|----0---------0----|
|-0---------------------|-0---------------------|----3----------3-------|-------------------|
|-----------------------|-----------------------|-1---------------------|-3-----------------|
  E  E  E  Q    E  E  E   E  E  E  Q    E  E  E   E  E  E  Q    E  E  E   E  E  Q.     E  Q


  S S Q.    Q   Q    Q   E E E E e E   H       e E E E   S S Q   H      S S
|-----0---------2--|-3---0-3-2-0-----|-0-------0---0-5-|-2h3p2--------------|
|-2h3-----0-3------|-------------3---|-----1---1-------|---------3--------3-|
|-------2-------2--|-----2-------4-2-|-------2-2-2-----|-------2------------|
|-----2-------2----|---2-------2-----|---2-------------|-----2------2-------|
|-0---------0------|-0-------0-------|-0-------0---0---|-0------------0-----|
|------------------|-----------------|-----------------|--------------------|
  E   E E E E E Q    E E Q   E E e E   E E E E e E Q     E   E E Q  E Q


  E E H      E E   S S Q.   E   E  E. S   Q   Q   H         H       Q.     S S
|-0--------------|----------0-----------|---------2-------|-3-------2------0-2-|
|-------1------3-|-0h1p0--------0-------|-------1-------3-|-------3--------3---|
|-----2------2---|--------1--------1--1-|-2---2-------2---|-----2-------2------|
|----------------|----------------------|---2-------2-----|---2-------2--------|
|---3------3-----|-----2----------------|-0-------0-------|-0-------0----------|
|-1--------------|-0--------------------|-----------------|--------------------|
  E Q   Q  E Q     E   E  E Q   Q.        E E E E E E E E   E E E E E E E E


  Q   Q   q    E  E   S S Q.    Q.     S S   E E E E q    e  e   S S E  E E E E e  S S
|-3-------0----0--3-|-2-0------------------|-0-------0-------0-|------------3-7----0-2-|
|-----3-1-1---------|-----3------------1-3-|---1-----1---------|-3-1-0----3-----0------|
|---0---------------|---------2-0---0--2-4-|-----2-0-2----2----|--------0-------0------|
|-------------------|-0-----------4--------|-3-----------------|-----------------------|
|-3-------3---------|----------------------|-------------------|-----------------------|
|-------------------|----------------------|-------------------|-----------------------|
  E E E E q    Q      Q.      E E E E  E     H       H


  Q   H        e  e   S S E  E Q  E E E   E  E E E E E  E  E   S S Q.    H
|-3------------0--3-|-2-3-5----2------2-|-3------0-x----2--3-|-2-1-2------------------|
|-----3-1------1--5-|--------3------3---|------2-----2--2--2-|-----------4----------4-|
|---0-----0---------|-------------2-----|--------------------|--------4-------4-------|
|-------------------|-0-----------------|----2---------------|-----4-------------4----|
|-3-----------------|-------------------|-4------------------|-2----------------------|
|-------------------|-------------------|--------------------|------------------------|
  E E E E Q    Q      W                   W                    E   E  E  Q    E  E  E


  E E E E E E E E   E E E E E E E E
|-0---0-3-5---0-5-|-7---0-3-5---0-5-|
|---0-------2-----|---0-------2-----|
|-----------------|-----------------|
|-2-------2-------|---------2-------|
|-----------------|-7---------------|
|-----------------|-----------------|
  H       H         H       H


  E   E   E   E  +E   E   E   E   E  E  E  E +E  E  E  E
|-8-----------------------------|-7----------------------|
|------------10-(10)---------10-|----------8-(8)-------8-|
|--------10--------------10-----|-------9-----------9----|
|----10--------------10---------|----9-----------9-------|
|-8-----------------------------|-7----------------------|
|-------------------------------|------------------------|
  W                               W


  E  E  E  E +E  E  E  E   E  E  E  E +E  E  E  E
|------------------------|-5----------------------|
|----------7-(7)-------7-|----------6-(6)-------6-|
|-------7-----------7----|-------7-----------7----|
|----7-----------7-------|----7-----------7-------|
|-6----------------------|-5----------------------|
|------------------------|------------------------|
  W                        W


  E  E  E  E +E  E  E E   E  E  E  E +E  E  E  E
|---------------------4-|-3----------------------|
|-6--------6-(6)--------|----------5-(5)-------5-|
|-------6-----------6---|-------5-----------5----|
|----6-----------6------|----5-----------5-------|
|-4---------------------|-3----------------------|
|-----------------------|------------------------|
  W                       W


  E E E E +E  E E E   E E E  E  +E  E E E
|-7-----------------|---------------------|
|-------------------|-------10-(10)-----9-|
|-------9-(9)-----9-|-----7-----------7---|
|-----7---------7---|---9-----------9-----|
|---9---------9-----|-7-------------------|
|-7-----------------|---------------------|
  W                   W


  H       H         H       H
|-0-------2-------|-3-------2-------|
|-------1-------3-|-------3-------3-|
|-----2-------2---|-----2-------2---|
|---2-------2-----|---2-------2-----|
|-0-------0-------|-0-------0-------|
|-----------------|-----------------|
  E E E E E E E E   E E E E E E E E


  H       H         H       H
|-0-------2-------|-3-------2-------|
|-------1-------3-|-------3---------|
|-----2-------2---|-----2-------4-2-|
|---2-------2-----|---2-------2-----|
|-0-------0-------|-0-------0-------|
|-----------------|-----------------|
  E E E E E E E E   E E E E E E E E


  S  S   S   S    H.        +H.       q
|-----------------0-------|-(0)----------*|
|------------1---(1)------|-(1)-------1--*|
|--------2--(2)--(2)------|-(2)-------2--*|
|----2--(2)-(2)--(2)------|-(2)-------2--*|
|-0-(0)-(0)-(0)--(0)------|-(0)-------0--*|
|-------------------------|--------------*|

h - hammer on
p - pull off

W - whole
H - half
Q - quarter
E - 8th
S - 16th
T - 32nd
a - acciaccatura
+ - note tied to previous
. - note dotted

Uncapitalized letters represent notes that are staccato (1/2 duration)
Low melody durations appear below the staff
Login or Register to remove this ad.