Ads

Lorule Castle (Milk Bar) (Legend of Zelda: A Link Between Worlds) Guitar Tab

Submitted: Feb 05, 2014 by hslesperance

5
Average: 5 (1 vote)
Download | Listen
Game: Legend of Zelda: A Link Between Worlds
Composer(s): Ryo Nagamatsu
Style: 2 or more instruments, Alternate picking, Tapping, Transcription
Series: Legend of Zelda

AutoScroll: Slow | Medium | Fast
Lorule Castle (Milk Bar)
Legend of Zelda: A Link Between Worlds
Composed by Ryo Nagamatsu
Tabbed by hslesperance
2/5/14

Guitars 1 & 3 - Standard Tuning
Guitar 2 - Drop D Tuning (DADGBE)




Guitar 1

 4/4
                                               |-3--|
  W                         H.                 E E  E
|-------------------------|---------------------------|
|-------------------------|---------------------------|
|-------------------------|--------------------7-9-10-|
|-------------------------|---------------------------|
|-------------------------|---------------------------|
|-------------------------|---------------------------|


      |-3--|     |-3--|              |-3--|        |-3--|      |-3--|   |3-|  |3-|  |--3--|  |--3--|
   Q  E E  E  Q  E E  E    Q  Q   Q  E E  E    Q   E  E E  Q   E E  E   Q  E  Q  E  E  E  E  E  E  E
|-----------------------|-----8---7---------|-------------------------|--------------------------------|
|-10---------10---------|-10---------8-8-10-|-11--11-10-8-10----------|---------11-10------------------|
|-----7-9-10-----7-9-10-|-------------------|--------------------9-10-|-9-10-12-------12-10--9-10-12---|
|-----------------------|-------------------|-----------------12------|--------------------------------|
|-----------------------|-------------------|-------------------------|--------------------------------|
|-----------------------|-------------------|-------------------------|--------------------------------|


      |-3--|     |-3--|              |-3--|        |-3--|      |-3--|       |-3--|
   Q  E E  E  Q  E E  E    Q  Q   Q  E E  E    Q   E  E E  Q   E E  E   Q   E  E E  Q  Q    W
|-----------------------|-----8---7---------|-------------------------|-------------------|--------------|
|-10---------10---------|-10---------8-8-10-|-11--11-10-8-10----------|-------------------|--------------|
|-----7-9-10-----7-9-10-|-------------------|--------------------9-10-|-9--------9--------|--------------|
|-----------------------|-------------------|-----------------12------|----11-12---12-----|--------------|
|-----------------------|-------------------|-------------------------|-------------------|--------------|
|-----------------------|-------------------|-------------------------|-------------------|--------------|


 2/4

   H              +H              E    e    e    e      s  s    e    Q
|-17-----------|-(17)-----------|-----15-------------|--------------15------|
|--------------|----------------|----------18---17---|-15-17---18-----------|
|--------------|----------------|--------------------|----------------------|
|--------------|----------------|--------------------|----------------------|
|--------------|----------------|--------------------|----------------------|
|--------------|----------------|--------------------|----------------------|


  E    e    e    e      s  s    e    Q       E     e     e     e       s  s    e    Q       H
|--------------------|---------------------|------------------------|---------------------|----------------|
|-----18---16---15---|----15---16---18-----|------15----------------|---------------------|----------------|
|--------------------|-17------------------|------------15----14----|----14---15---17-----|----------------|
|--------------------|---------------------|------------------------|-17------------------|----------------|
|--------------------|---------------------|------------------------|---------------------|----------------|
|--------------------|---------------------|------------------------|---------------------|----------------|


   H             E    e    e    e      s  s    e    Q       H              Q     E E  E
|--------------|-----15-------------|---------------------|--------------|---------------|
|-15-----------|--------------------|---------------------|--------------|---------------|
|--------------|----------15---14---|----14---15---17-----|--------------|-------7-9-10--|
|--------------|--------------------|-17------------------|--------------|---------------|
|--------------|--------------------|---------------------|--------------|---------------|
|--------------|--------------------|---------------------|--------------|---------------|


         |-3--|          |-3--|                                      |--3--|
   Q     E E  E    Q     E E  E    Q            Q            Q       E  E  E
|---------------|---------------|---------------8---------|------------------|
|-10------------|-10------------|-10----------------------|-11-------8--8-10-|
|--------7-9-10-|--------7-9-10-|-------------------------|------------------|
|---------------|---------------|-------------------------|------------------|
|---------------|---------------|-------------------------|------------------|
|---------------|---------------|-------------------------|------------------|


            |--3--|             |--3--|    |-3--|  |--3--|    |--3--|  |--3--|
   Q        E  E  E    Q        E  E  E    Q    E  Q     E    E  E  E  E  E  E
|-------------------|-------------------|------------------|-------------------|
|-10-------11-10--8-|-10----------------|----------9----12-|-10----------10-12-|
|-------------------|--------------9-10-|--9---11----------|----12-10-12-------|
|-------------------|----------12-------|------------------|-------------------|
|-------------------|-------------------|------------------|-------------------|
|-------------------|-------------------|------------------|-------------------|


            |--3--|             |--3--|                                      |--3--|
   Q        E  E  E    Q        E  E  E    Q            Q            Q       E  E  E
|-------------------|-------------------|--------------11---------|-10---------------|
|-13----------------|-13----------------|-13----------------------|---------11-11-13-|
|----------10-12-13-|----------12-12-13-|-------------------------|------------------|
|-------------------|-------------------|-------------------------|------------------|
|-------------------|-------------------|-------------------------|------------------|
|-------------------|-------------------|-------------------------|------------------|


          |--3--|             |--3--|             |--3--|             |--3--|
   Q      E  E  E    Q        E  E  E    Q        E  E  E    Q        E  E  E
|-----------------|-------------------|-------------------|-------------------|
|-13-----14-13-11-|-13-------------10-|-11----------------|-------------------|
|-----------------|----------10-12----|----------10-10-12-|-10--------7--9-10-|
|-----------------|-------------------|-------------------|-------------------|
|-----------------|-------------------|-------------------|-------------------|
|-----------------|-------------------|-------------------|-------------------|


         |-3--|          |-3--|                                      |--3--|
   Q     E E  E    Q     E E  E    Q            Q            Q       E  E  E
|---------------|---------------|---------------8---------|------------------|
|-10------------|-10------------|-10----------------------|-11-------8--8-10-|
|--------7-9-10-|--------7-9-10-|-------------------------|------------------|
|---------------|---------------|-------------------------|------------------|
|---------------|---------------|-------------------------|------------------|
|---------------|---------------|-------------------------|------------------|


            |--3--|             |--3--|    |-3--|  |--3--|    |--3--|  |--3--|
   Q        E  E  E    Q        E  E  E    Q    E  Q     E    E  E  E  E  E  E
|-------------------|-------------------|------------------|-15----------------|
|-10-------11-10--8-|-10----------------|----------9----12-|----18-16-15-17-18-|
|-------------------|--------------9-10-|--9---11----------|-------------------|
|-------------------|----------12-------|------------------|-------------------|
|-------------------|-------------------|------------------|-------------------|
|-------------------|-------------------|------------------|-------------------|


            |--3--|             |--3--|                                       |--3--|
   Q        E  E  E    Q        E  E  E    Q            Q            Q        E  E  E
|-17----------------|-17----------------|-17-----------20---------|-19-------------17-|
|-------------17-18-|-------------17-18-|-------------------------|----------20-20----|
|----------19-------|----------19-------|-------------------------|-------------------|
|-------------------|-------------------|-------------------------|-------------------|
|-------------------|-------------------|-------------------------|-------------------|
|-------------------|-------------------|-------------------------|-------------------|


            |--3--|             |--3--|                            |--3--|
   Q        E  E  E    Q        E  E  E    H                Q      E  E  E
|-17-------18-17----|-17----------------|-17--------------|----------------|
|----------------20-|-------------17-18-|-----------------|----------17-18-|
|-------------------|----------19-------|-----------------|-------19-------|
|-------------------|-------------------|-----------------|----------------|
|-------------------|-------------------|-----------------|----------------|
|-------------------|-------------------|-----------------|----------------|


       |--3--|        |--3--|              |3-|  |--3--|
   Q   E  E  E    Q   E  E  E    Q   Q     Q  E  E  E  E
|-17-----------|-17-----------|-17--20--|-18-17----------|
|--------17-18-|--------17-18-|---------|-------20-18-17-|
|-----19-------|-----19-------|---------|----------------|
|--------------|--------------|---------|----------------|
|--------------|--------------|---------|----------------|
|--------------|--------------|---------|----------------|


                         |--3--|
   H       +H        q   E  E  E    q  Q
|-------|---------|-22--22-22-22-|-22-----*|
|-------|---------|--------------|--------*|
|-19----|-(19)----|--------------|--------*|
|-------|---------|--------------|--------*|
|-------|---------|--------------|--------*|
|-------|---------|--------------|--------*|




Guitar 2

 4/4

  |-3-| |-3-| |-3-| |-3-|   |-3--| |-3-| |-3-| |-3--|
  E E E E E E E E E E E E   E  E E E E E E E E E E  E
|-------------------5-----|--------------------5------|
|-3-----5-----6-----------|-3------5-----6------------|
|-------------------------|---------------------------|
|-0-0-0-0-0-0-0-0-0-0-0-0-|-0--0-0-0-0-0-0-0-0-0-0--0-|
|-------------------------|---------------------------|
|-------------------------|---------------------------|


   Q  Q       Q  Q         Q  Q   Q  Q         Q   Q       Q   Q        Q     Q     Q        Q
|-----------------------|-----5---7---------|--------------2----------|-6------------------------------|
|--6----------6---------|--6--6---8---------|--8-----------3----------|-8-----------8--------8---------|
|--7----------7---------|--7--7---7---------|--7-----------2----------|-6-----------9--------9---------|
|--7----------7---------|--7--7---9---------|--8-----------4----------|------------11-------11---------|
|--5----------5---------|--5--5--10---------|-10-----------5----------|------------12-------12---------|
|-----------------------|-------------------|-------------------------|--------------------------------|


   Q  Q       Q  Q         Q  Q   Q  Q         Q   Q       Q   Q        Q   Q       Q  Q    Q   Q  Q  Q
|-----------------------|-----5---7---------|--------------2----------|-5-----------------|--------------|
|--6----------6---------|--6--6---8---------|--8-----------3----------|-5-----------7-----|--------------|
|--7----------7---------|--7--7---7---------|--7-----------2----------|-6-----------7-----|-----7--7--7--|
|--7----------7---------|--7--7---9---------|--8-----------4----------|-7-----------7-----|--------------|
|--5----------5---------|--5--5--10---------|-10-----------5----------|-------------9--0--|----10--8--7--|
|-----------------------|-------------------|-------------------------|------------12-----|-0------------|

 2/4

   |-3-| |-3-|     |-3--| |-3-|   |--3---|  |--3---|    |----3----|  |-3-|
   E E E E E E     E  E E E E E   E E    E  E E    E    E    E    E  E E E
|--------------|----------------|-----------7--------|----------------------|
|--------6-----|----------6-----|--------8----8------|---------------5------|
|------7---7---|--------7---7---|---7--------------7-|------------5----5----|
|----7-------7-|------7-------7-|-5------------------|-------5-----------5--|
|--5-----------|---5------------|--------------------|--3-------------------|
|--------------|----------------|--------------------|----------------------|


  |--3---|  |--3---|    |----3----|  |-3-|   |---3----|  |---3----|    |----3----|  |-3-|   |-3--| |-3-|
  E E    E  E E    E    E    E    E  E E E   E  E     E  E  E     E    E    E    E  E E E   E E  E E E E
|--------------------|---------------5-----|------------10----------|---------------------|----------------|
|-----------4--------|------------6----6---|---------11----11-------|---------------8-----|-----10-----7---|
|--------5----5------|-------5-----------5-|---10----------------10-|------------8----8---|---9------------|
|---5--------------5-|--3------------------|-8----------------------|-------8-----------8-|-7--------7-----|
|-3------------------|---------------------|------------------------|--6------------------|--------5-------|
|--------------------|---------------------|------------------------|---------------------|----------------|


   |-3-| |-3-|   |--3---|  |--3---|    |----3----|  |-3-|   |-3-|  |-3-|   |-3-| |-3--|
   E E E E E E   E E    E  E E    E    E    E    E  E E E   E E E  E E E   E E E E E  E
|--------6-----|--------3--6-3------|---------------5-----|-5---5-10-----|-------9-------|
|------8---8---|--------------------|------------6----6---|---5--------7-|-----8---8-----|
|----7-------7-|---3--------------3-|-------5-----------5-|--------------|---9--------9--|
|--5-----------|--------------------|---------------------|-7------0-7---|-7-------------|
|--------------|-6------------------|--8------------------|--------------|---------------|
|--------------|--------------------|---------------------|--------------|---------------|


   |-3-| |-3--|    |-3-| |-3--|    |----3----|  |---3---|    |-3--|  |--3--|
   E E E E E  E    E E E E E  E    E    E    E  E  E    E    E E  E  E  E  E
|---------------|--------5------|-------------------------|------10----------|
|--------6------|------6---6----|--------------10---------|--9---------------|
|------7---7----|----7--------7-|-----------10----10------|----9----------12-|
|----7--------7-|--8------------|------11--------------11-|--8---------11----|
|--5------------|---------------|-------------------------|---------10-------|
|---------------|---------------|--9----------------------|------------------|


   |--3--|  |--3--|    |--3--|  |--3--|    |-3--|  |--3--|    |--3--|  |--3--|
   E  E  E  E  E  E    E  E  E  E  E  E    E E  E  E  E  E    E  E  E  E  E  E
|----------10-------|----------13-------|---------12-------|----------12-------|
|-------10----10----|-------10----10----|------12----12----|-------12----12----|
|-------------------|-------------------|----9-----------9-|-----9-----------9-|
|----12----------12-|----12----------12-|------------------|-------------------|
|--9----------------|-10----------------|-11---------------|-10----------------|
|-------------------|-------------------|------------------|-------------------|


   |--3--|  |--3--|    |--3--|  |--3--|    |----3----|  |---3---|    |-3--|  |--3--|
   E  E  E  E  E  E    E  E  E  E  E  E    E    E    E  E  E    E    E E  E  E  E  E
|----------12-------|-------------------|--------------11---------|------10----------|
|-------------------|-------------------|-----------13----13------|---------------11-|
|-------12----12----|-------10-13-10----|-------------------------|---------11-------|
|----10----------10-|-------------------|-------------------------|----9-------11----|
|--7----------------|----11----------11-|------11--------------11-|------------------|
|-------------------|-10----------------|-11----------------------|-12------13-------|


   |-3-|  |--3--|    |--3--|  |--3--|    |--3--|  |--3--|    |--3--|  |--3--|
   E E E  E  E  E    E  E  E  E  E  E    E  E  E  E  E  E    E  E  E  E  E  E
|---------8-------|----------13-------|----------13-------|----------13-------|
|------9-----9----|-------13----13----|-------11----11----|-------13----13----|
|----8----------8-|----10----------10-|----10----------10-|----10----------10-|
|-----------------|-------------------|-------------------|-------------------|
|-11--------------|-12----------------|-13----------------|-12----------------|
|-----------------|-------------------|-------------------|-------------------|


   |-3-| |-3--|    |-3-| |-3--|    |----3----|  |---3---|    |-3--|  |--3--|
   E E E E E  E    E E E E E  E    E    E    E  E  E    E    E E  E  E  E  E
|---------------|--------5------|-------------------------|------10----------|
|--------6------|------6---6----|--------------10---------|--9---------------|
|------7---7----|----7--------7-|-----------10----10------|----9----------12-|
|----7--------7-|--8------------|------11--------------11-|--8---------11----|
|--5------------|---------------|-------------------------|---------10-------|
|---------------|---------------|--9----------------------|------------------|


   |--3--|  |--3--|    |--3--|  |--3--|    |-3--|  |--3--|    |--3--|  |--3--|
   E  E  E  E  E  E    E  E  E  E  E  E    E E  E  E  E  E    E  E  E  E  E  E
|----------10-------|----------13-------|---------12-------|----------12-------|
|-------10----10----|-------10----10----|------12----12----|-------12----12----|
|-------------------|-------------------|----9-----------9-|-----9-----------9-|
|----12----------12-|----12----------12-|------------------|-------------------|
|--9----------------|-10----------------|-11---------------|-10----------------|
|-------------------|-------------------|------------------|-------------------|


   |--3--|  |--3--|    |--3--|  |--3--|    |----3----|  |---3---|    |--3--|  |--3--|
   E  E  E  E  E  E    E  E  E  E  E  E    E    E    E  E  E    E    E  E  E  E  E  E
|----------10-------|----------10-------|--------------10---------|----------10-------|
|-------------------|-------------------|-------------------------|-------------------|
|-------10----10----|-------10----10----|-----------10----10------|-------10----10----|
|-------------------|-------------------|-------------------------|-------------------|
|----12----------12-|----12----------12-|------12--------------12-|----12----------12-|
|-12----------------|-11----------------|-10----------------------|--9----------------|


            T                   T                  T               T
   |--3--|  |--3--|    |--3--|  |--3--|    |-3--|  |-3--|   |-3-|  |--3--|
   E  E  E  E  E  E    E  E  E  E  E  E    E E  E  E  E E   E E E  E  E  E
|-------10-17-10----|-------10-17-10----|------10-17-10---|-----9-15--9----|
|-------------------|-------------------|-----------------|----------------|
|----10----------10-|----10----------10-|----9----------9-|---9----------9-|
|--7----------------|--8----------------|--7--------------|-7--------------|
|-------------------|-------------------|-----------------|----------------|
|-------------------|-------------------|-----------------|----------------|


   Q   Q          Q   Q          H         Q     Q
|--------------|--------------|---------|----------------|
|--3---2-------|--1---0-------|---------|--1-------------|
|--2---2-------|--2---2-------|--3------|--0-------------|
|--3---3-------|--3---3-------|--3------|--2-------------|
|--------------|--------------|--5------|--3-------------|
|--------------|--------------|---------|----------------|


                   |--3--|
   H       +H        q   E  E  E    q  Q
|-------|---------|--------------|--------*|
|--3----|--(3)----|--3---3--3--3-|--3-----*|
|--2----|--(2)----|--2---2--2--2-|--2-----*|
|--4----|--(4)----|--4---4--4--4-|--4-----*|
|--5----|--(5)----|--5---5--5--5-|--5-----*|
|-------|---------|--------------|--------*|




Guitar 3

   H               H               S S    Q          E       Q       Q
|---------------|---------------|--1-0----1----------0----|------------------|
|---------------|--3------------|-------------------------|--3---------------|
|--2------------|---------------|-------------------------|------------------|
|---------------|---------------|-------------------------|------------------|
|---------------|---------------|-------------------------|------------------|
|---------------|---------------|-------------------------|------------------|


   H                   H                   H                  H
|-------------------|-------------------|------------------|-------------------|
|-------------------|--3----------------|------------------|-------------------|
|--2----------------|-------------------|------------------|-------------------|
|-------------------|-------------------|------------------|-------------------|
|-------------------|-------------------|------------------|-------------------|
|-------------------|-------------------|------------------|-------------------|


   H                   H                   S S    Q          E       Q       Q
|-------------------|-------------------|----3----4----------6----|------------------|
|-------------------|--6----------------|--6----------------------|--6---------------|
|--5----------------|-------------------|-------------------------|------------------|
|-------------------|-------------------|-------------------------|------------------|
|-------------------|-------------------|-------------------------|------------------|
|-------------------|-------------------|-------------------------|------------------|


   H                 H                   H                   H
|-----------------|-------------------|-------------------|-------------------|
|-----------------|--6----------------|-------------------|-------------------|
|--5--------------|-------------------|-------------------|-------------------|
|-----------------|-------------------|-------------------|-------------------|
|-----------------|-------------------|-------------------|-------------------|
|-----------------|-------------------|-------------------|-------------------|


   H               H               S S    Q          E       Q       Q
|---------------|---------------|--1-0----1----------0----|------------------|
|---------------|--3------------|-------------------------|--3---------------|
|--2------------|---------------|-------------------------|------------------|
|---------------|---------------|-------------------------|------------------|
|---------------|---------------|-------------------------|------------------|
|---------------|---------------|-------------------------|------------------|


   H                   H                   H                  H
|-------------------|-------------------|------------------|-------------------|
|-------------------|--3----------------|------------------|-------------------|
|--2----------------|-------------------|------------------|-------------------|
|-------------------|-------------------|------------------|-------------------|
|-------------------|-------------------|------------------|-------------------|
|-------------------|-------------------|------------------|-------------------|


   H                   H                   S S    Q          E       Q        Q
|-------------------|-------------------|--1-0----1----------0----|-------------------|
|-------------------|--3----------------|-------------------------|--3----------------|
|--2----------------|-------------------|-------------------------|-------------------|
|-------------------|-------------------|-------------------------|-------------------|
|-------------------|-------------------|-------------------------|-------------------|
|-------------------|-------------------|-------------------------|-------------------|


   H                   H                   H                H
|-------------------|-------------------|-----------------|----------------|
|-------------------|--3----------------|-----------------|----------------|
|--2----------------|-------------------|-----------------|----------------|
|-------------------|-------------------|-----------------|----------------|
|-------------------|-------------------|-----------------|----------------|
|-------------------|-------------------|-----------------|----------------|

T - tapping

W - whole
H - half
Q - quarter
E - 8th
S - 16th
+ - note tied to previous
. - note dotted

Uncapitalized letters represent notes that are staccato (1/2 duration)
Irregular groupings are notated above the duration line
Login or Register to remove this ad.

1 comment on Lorule Castle (Milk Bar)

Good luck playing the guitar

Good luck playing the guitar part at tempo!