A Kingdom's Legend (Legend of Zelda: A Link Between Worlds) Guitar Tab

Submitted: Oct 24, 2015 by Coolbreeze

5
Average: 5 (1 vote)
Download | Listen
Game: Legend of Zelda: A Link Between Worlds
Composer(s): Ryo Nagamatsu
Style: Arrangement, Fingerstyle
Series: Legend of Zelda

This song is also called Prologue

AutoScroll: Slow | Medium | Fast
		     A Kingdom's Legend 
       ~The Legend of Zelda : A Link Between Worlds~

Composed by Ryo Nagamatsu
Tabbed by Coolbreeze
Tempo = 80

 

     Q    E  E  Q.     E     Q    E  E  Q.     E     Q    E  E  Q.     E   
E||-----------------------|-----------------------|-----------------------|
B||----------0--1------0--|--L-------0--1------0--|--L----1--0--3------1--|
G||-----------------------|-----------------------|-------------0------0--|
D||-------2---------------|-------2---------------|-------------0---------|
A||-----------------------|-----------------------|-----------------------|
E||--0--------------------|-----------------------|-----------------------|


  E  E  H.              Q    E  E  E  E  E  E     Q    E  E  E  E  E  E   
---------------------|-------------------------|-------------------------|
--------0------------|----------0--1--0-----0--|--L-------0--1--0-----0--|
-----2--1------------|-------------------2--1--|--L----------------2--1--|
---------------------|-------2-----------------|-------2-----------------|
---------------------|-------------------------|-------------------------|
--1-----0------------|--0----------------------|-------------------------|


                            |--3--|                                            
  Q    E  E  E  E  E  E     E  E  E  H        Q       E  E  E  E  E  S E.  E   
----------------------3--|--6--5--3--5--------0----|--0-----2--------0-----0--|
-------1--0--3--5--6-----|-----------5-------------|-----4-------------4------|
-------------------------|-----------4-------------|--------------------------|
-------------------------|-----------2-------------|-----------1--2-----------|
-------------------------|-------------------------|--4-----------------------|
--1----------------------|-------------------------|--------------------------|


  E  E  E  E  E  E  E  E     E  E  Q    E  E  E  E     E  E  H        E  E   
--0--2--3-----0--2--5--3--|--4----------------0--2--|--3-----0--------------|
--1--------4--------------|--------1----2--4--------|-----0-----------0--1--|
--------------------------|-----3-------------------|--------0--------------|
--------------------------|-------------------------|-----------------------|
--0-----------------------|--4----------------------|-----------------------|
--------------------------|-------------------------|-----------------------|


  E  E  Q.     E  E  E     E  E  Q.     E  E  E     E  E  Q.     E  E  E   
--------0------------0--|--3--2--0------2--3--0--|--------0------------0--|
--1--3---------3--1-----|--0---------------------|--1--3---------3--1-----|
------------------------|------------------------|------------------------|
------------------------|--------2---------------|------------------------|
------------------------|------------------------|------------------------|
------------------------|------------------------|------------------------|


  Q    Q.     E  E  E     Q    Q    Q    Q       Q    Q    Q    Q     
--5----0---------------|--7----6----5---------|-------3----2----1----|
--------------3--5--7--|----------------------|----------------------|
--0--------------------|-----------------1----|--0-------------------|
--0--------------------|----------------------|----------------------|
-----------------------|----------------------|----------------------|
-----------------------|----------------------|----------------------|


  |--------3--------|                                                          
  H        H        H           Q    E.  S Q    E.  S    Q    E.  S Q    Q     
-----------------------------|------------------------|-------------0---------|
-----------1--------0--------|-------------0----------|--3--------2-0---------|
-----------------------------|--3--------2----------3-|--2--------0-----------|
--1--------0-----------------|------------------------|-----------------------|
--------------------4--------|--3----------3----------|--3----------3---------|
-----------------------------|-------3----------3-----|-------3----------3----|


  Q    Q    Q    Q       Q    Q    Q    Q       H        H         
----------------------|--3----2----5----4----|--7-----------------|
--4----3----6----5----|--3----2----5----4----|--7-----------------|
--3----2----5----4----|----------------------|--------------------|
----------------------|----------------------|--------------------|
----------------------|--1----0----3----2----|--5--------7--------|
--2----1----4----3----|----------------------|--------------------|


  Q    H        S S S S    Q.     S S E  S S E  S S    Q    H        S S S S  
----------------------5-|--7------5-3-5-------------|----------------------5-|
--5-------------5-7-9---|----------------8-6-8--6-3-|--5-------------5-7-9---|
-------4----------------|---------------------------|-------4----------------|
------------------------|---------------------------|------------------------|
------------------------|---------------------------|------------------------|
------------------------|---------------------------|------------------------|


  Q.     S S E  S S E  S S    Q    H        S  S S S  
--7------8-7-5--7-5----5---|---------------------7-8-|
--------------------8----6-|--8-------------8-10-----|
---------------------------|-------7-----------------|
---------------------------|-------------------------|
---------------------------|-------------------------|
---------------------------|-------------------------|


   Q.      S  S E   S S E   S S    Q    H        S  S S S  
--10------11-10-8--10-8-7-------|---------------------7-8-|
---------------------------10-7-|--8-------------8-10-----|
--------------------------------|-------7-----------------|
--------------------------------|-------------------------|
--------------------------------|-------------------------|
--------------------------------|-------------------------|


   Q.      S  S E   S S S S  S  S     E   E   Q.      E   E   E   
--10------11-10-8--10-8-7-8-10-11-|--13--15--17------15--13--17--|
----------------------------------|------------------------------|
----------------------------------|------------------------------|
----------------------------------|------------------------------|
----------------------------------|------------------------------|
----------------------------------|------------------------------|


   E   E   Q.      E   E   E      E   E   Q.      E   E   E   
--12--------------------------|--13--15--17------15--17--19--|
------11--12------11------11--|------------------------------|
----------------------13------|------------------------------|
------------------------------|------------------------------|
------------------------------|------------------------------|
------------------------------|------------------------------|


   H         H            W                     E  E  E  E  E  E  E  E   
--20--------22--------|--24-----------------||--------0--1-----3-----5--|
----------------------|---------------------||-----1--------------------|
----------------------|--------------------*||--------------2-----4-----|
----------------------|--22----------------*||--------------------------|
----------------------|---------------------||--------------------------|
----------------------|---------------------||--1-----------------------|


  E  E  E  E  E   E   Q        E  E  E  Q.     Q       E  E  E  H        E   
-----7-----8-----10--------|--12-----7--8------7----|--------7--8--------7--|
---------------------------|------5-----------------|-----5-----------------|
--5-----7-----9------10----|--13--------------------|-----------------------|
---------------------------|------------------------|-----------------------|
---------------------------|------------------------|-----------------------|
---------------------------|------------------------|-----------------------|


  H.              W                   W                  
---------------|-------------------|-------------------||
---------------|--0----------------|--0----------------||
---------------|--1----------------|--1----------------||
---------------|-------------------|-------------------||
---------------|-------------------|-------------------||
---------------|--0----------------|--0----------------||
Login or Register to remove this ad.