Ads

Hilda's Theme (Legend of Zelda: A Link Between Worlds) Guitar Tab

Submitted: Jan 17, 2014 by Alfa_ice

5
Average: 5 (3 votes)
Download | Listen
Game: Legend of Zelda: A Link Between Worlds
Composer(s): Ryo Nagamatsu
Style: Arrangement, Fingerstyle
Series: Legend of Zelda

AutoScroll: Slow | Medium | Fast
                                Hilda's Theme      
                             
The Legend of Zelda: A Link Between Worlds
Composed by: Ryo Nagamatsu
Tabbed by: Isac Saleh
Difficulty: Hard
Standard tuning: EADGBE 


     E  E  E  E  E  E  E  E  Q    Q       E  E  E  E  E  E  E  E  H         
E||--3--------0--2--3--5----------0----|--3--------0--2--3--5--------------|
B||--------0-----------------2---------|--------0-----------------2--------|
G||-----0-----------------2------------|-----0-----------------2-----------|
D||--2-----------------2---------------|--2-----------------2--------------|
A||------------------------------------|-----------------------------------|
E||------------------------------------|-----------------------------------|


                                       ^                ^                 
  E  E  E  E  E  E  E  E  Q    Q       E  E  E  E  Q    E  E  E  E  Q     
--3--------0--2--3--5----------5----|--7-----3--5--3----5-----------2----|
--------0-----------------5---------|-----3-------------3-----3--5-------|
-----0-----------------2------------|--0-------------------2-------------|
--2-----------------2---------------|-------------------0----------------|
------------------------------------|------------------------------------|
------------------------------------|------------------------------------|


  E  E  E  E  E  E  E  E  Q    Q       E  E  E  E  E  E  E  E  H         
--3--------0--2--3--5----------0----|--3--------0--3--7--5--------------|
--------0-----------------2---------|--------0-----------------2--------|
-----0-----------------2------------|-----0-----------------2-----------|
--2-----------------2---------------|--2-----------------2--------------|
------------------------------------|-----------------------------------|
------------------------------------|-----------------------------------|


                                       ^                ^               
  E  E  E  E  E  E  E  E  Q    Q       E  E  E  E  Q    Q    Q    Q     
--3--------0--------5----------5----|--8--------7--5----7--------------|
--------0-----7--8--------5---------|----------------------------------|
-----0------------------------------|--------5-------------------------|
--2--------------------7------------|-----7------------------4----6----|
--------------------7---------------|--8----------------7--------------|
------------------------------------|----------------------------------|


  E  E  E  E  E  E   E  E  Q     Q       E  E  E  E  E  E  E  E  Q    Q     
--8--------5--7--8--10----------------|--6--------3--5--6--8---------------|
--------5-----------------------10----|--------3----------------------8----|
-----5---------------------7----------|-----3--------------------5---------|
--7--------5------------7-------------|--5--------3-----------5------------|
---------------------9----------------|--------------------7---------------|
--------------------------------------|------------------------------------|


                                                         ^                 
  E  E  E  E  E  E  E  E  Q    Q       E  E  E  E  E  E  E  E  E  E  Q     
--4--------1--3--4--6----------6----|--3--------------3--5-----------7----|
--------1-----------------6---------|-----------3--5-----3--------3-------|
-----1--------------------3---------|--------5-----------------4----------|
--3--------1--------0--3--L---------|-----5-----------------4-------------|
------------------------------------|--3-----------------2----------------|
------------------------------------|-------------------------------------|


  E  E  E  E  E  E   E  E  Q     Q       E  E  E  E  E  E  E  E  Q    Q     
--8--------5--7--8--10----------------|--6--------3--5--6--8---------------|
--------5-----------------------10----|--------3----------------------8----|
-----5---------------------7----------|-----3--------------------5---------|
--7--------5------------7-------------|--5--------3-----------5------------|
---------------------9----------------|--------------------7---------------|
--------------------------------------|------------------------------------|


                                                         ^                 
  E  E  E  E  E  E  E  E  Q    Q       E  E  E  E  E  E  E  E  E  E  Q     
--4--------1--3--4--6----------6----|--3-----------2--3--2--------2--7----|
--------1-----------------6---------|--------2--5-----------0--4----------|
-----1--------------------3---------|-----2-------------------------------|
--3--------1-----------3------------|--------------------1----------------|
--------------------5---------------|--4----------------------------------|
------------------------------------|-------------------------------------|


  E  E  E  E  E  E  E  E  Q    Q       E  E  E  E  E  E  E  E  H         
--3--------0--2--3--5----------0----|--3--------0--2--3--5--------------|
--------0-----------------2---------|--------0-----------------2--------|
-----0-----------------2------------|-----0-----------------2-----------|
--2-----------------2---------------|--2-----------------2--------------|
------------------------------------|-----------------------------------|
------------------------------------|-----------------------------------|


                                       ^                ^                 
  E  E  E  E  E  E  E  E  Q    Q       E  E  E  E  Q    E  E  E  E  Q     
--3--------0--2--3--5----------5----|--7-----3--5--3----5-----------2----|
--------0-----------------5---------|-----3-------------3-----3--5-------|
-----0-----------------2------------|--0-------------------2-------------|
--2-----------------2---------------|-------------------0----------------|
------------------------------------|------------------------------------|
------------------------------------|------------------------------------|


  E  E  E  E  E  E  E  E  E  E  E  E     E  E  E  E  E  E  E  E  E  E  E  E   
--------------7-----------------7-----|--------------7-----------------7-----|
-----------8-----8-----------8-----8--|-----------8-----8-----------8-----8--|
--9-----9-----------9-----9-----------|--9-----9-----------9-----9-----------|
-----9-----------------9--------------|-----9-----------------9--------------|
--7-----------------6-----------------|--5-----------------------------------|
--------------------------------------|--------------------9-----------------|


                                      ^                  
  E  E  E  E  E  E  Q    Q    Q       W.                 
--------------7-----5--------------|--0----------------||
-----------8-----8-------7---------|--0----------------||
--9-----9---------------------7----|--9----------------||
-----9--------------0--------------|--9----------------||
-----------------------------------|--7----------------||
--8--------------------------------|-------------------||




Duration Legend
---------------
W - whole
H - half
Q - quarter
E - 8th
. - note dotted
|-n-|  - n-tuplets


Tablature Legend
----------------
^ - brush up

Login or Register to remove this ad.

3 comments on Hilda's Theme

Beautiful arrangment T_T

5

my hands is unable to do

     E  E  E  E  E    
E||--------------7--||
B||-----------8-----||
G||--9-----9--------||
D||-----9-----------||
A||--5--------------||
E||-----------------||

Is it cursed or something ? huh .. then I play

     E  E  E  E  E    
E||--------------7--||
B||-----------8-----||
G||--9-----9--------||
D||--0--9-----------||
A||-----------------||
E||-----------------||

rest is easy to play (well from the 5th try :) and it finally
sounds really cute wow ^^ well done & thanks sir Alfa_ice or have to say Master Alfa_ice *_*

I know many some of the

I know some of the switches/ finger positions might be hard to pull off, that's the drawback for trying to make this arrangement with as much "let ring" as possible.. This arrangement took me about 2-3 weeks of hard practice!

I'm 100% agreed with your

I'm 100% agreed with your arrangement, it's perfect and simplify it is pity. Indeed this bar needs especially an effort to be played on a nylon guitar. Another easier(/lazyer) method is using of an acoustic guitar (instead a nylon guitar) then your arrangement is just fine for me, coz I can play the difficult bar :)