Ads

Rito Village Night (Legend of Zelda: Breath of the Wild) Guitar Tab

Submitted: Jun 28, 2020 by guitarsvd (Last updated: Jul 28, 2020)

5
Average: 5 (1 vote)
Download | No audio :(
Game: Legend of Zelda: Breath of the Wild
Composer(s): Yasuaki Iwata, Manaka Kataoka
Style: Arrangement, Artificial harmonics, Fingerstyle, Natural harmonics
Series: Legend of Zelda

Click here for a video example.

AutoScroll: Slow | Medium | Fast
Title: Rito Village - Night
SubTitle: Zelda: Breath of the Wild
Artist: Cecil Chau (GuitarSVD)
Music: Manaka Kataoka, Yasuaki Iwata
Tempo = 90
Nylon Guitar

Legend
L - tied note
x - dead note
h - hammer on/pull off
b - bend
s - slide
~ - vibrato
g - ghost note
> - accentuated note
t - trill
M - palm mute
. - staccato
P - popping (bass)
S - slapping (bass)
+ - tapping
W - wide vibrato
< - fade in
w - whammy bar
= - tremolo picking
v - brush up
^ - brush down
V - pick stroke up
n - pick stroke down


E |-----------------3----------|-----7----------------------|
B |-----------0h-1-----3-------|--------8-------------------|
G |--------0-------------------|--9--------7L-7-------------|
D |-----2----------------------|----------------------------|
A |--0-------------------------|----------------------------|
E |----------------------------|----------------------------|


--------------0--3----------|-----12---------------------||-3-------------|
-----------1--------3-------|----------------------------||----6----------|
--------2-------------------|--------------9-------------||o3-----5-------|
-----3----------------------|----------------------------||o--------------|
--1-------------------------|--12------------------------||---------------|
----------------------------|----------------------------||----------4L---|


--3-------|--1-------------|--1-------|--------4-------|--------1-------|
--5-------|-----4----------|----------|--4--2----------|--4-------------|
----------|--3-----3-------|--3-------|--3-------------|----------------|
----------|----------------|----------|--4-------------|----------------|
----------|----------------|----------|----------------|----------------|
-----4----|-----------3L---|-----3----|-----------2L---|-----------2----|


----------|----------|-------------------------------|
--1-------|----------|-----2-----2-----2-------------|
----------|--0-------|--5-----5-----5----------------|
----------|----------|-----------------------3L-3----|
----------|----------|--------------------4----------|
-----0L---|-----0----|-------------------------------|


-----1-----1-----1-------------|-------------------------------|
--4-----4-----4----------------|--8--9--8--9--8--9-------------|
-----------------------1L-1----|--8-----8-----------------8----|
--------------------3----------|-------------------------------|
-------------------------------|-----------------------11------|
-------------------------------|--------------------8----------|


-----8-----8-----8-------------|--9--11-9--11-9--11------------|
--11----11----11---------------|--10----10----10---------------|
--8-----8-----------------8----|-------------------------------|
-----------------------10------|--------------------------7----|
-------------------------------|-----------------------7-------|
--------------------8----------|--------------------7----------|


--12-14-12-14-12-14------------|--15-17-15-17-15-17------------|
--14----14----14---------------|--17----17----17---------------|
-----------------------12------|--------------------16----16---|
--------------------14---------|-------------------------------|
-------------------------------|-------------------------------|
-------------------------------|-------------------------------|


--7--------7----------------------------------------|
-----8--------8-----0-----------0-------------------|
--------8--------8-----0----------------------------|
--------------------------1-------------------------|
--------------------------------------6-------------|
-----------------------------------------6--2-------|


--3--------2--3-------------------------|
-----------------------------0----------|
--------------------------0-----0-------|
-----------------------2-----------2----|
----------------------------------------|
--------------------0-------------------|


--5--------2L-2-------------------------|--0----------------------|
----------------------------------------|--------------1----------|
-----------------------------2----------|-----------0-----0-------|
-----------------------0--4-----4-------|-------------------------|
----------------------------------------|--------3-----------3----|
--------------------0-------------------|-----0-------------------|


----------------------------------------|
--0L----------0--0----------------------|
-----------------------------2----------|
-----------------------0--4-----4-------|
----------------------------------------|
--------------------0-------------------|


--3--------2--3-------------------------|--5--10---------------------|
-----------------------------0----------|----------------------------|
--------------------------0-----0-------|--------------2-----7-------|
-----------------------2-----------2----|-----------0-----0----------|
----------------------------------------|----------------------------|
--------------------0-------------------|--------2-------------------|


--7----------------------|-----------------3----------------------|
--------------0----------|--------------------1h-0----------------|
-----------0-----0-------|--------------------------0-----0-------|
--------0-----------0----|--------------------0--------0-----0----|
-------------------------|----------------------------------------|
-----3-------------------|----------------------------------------|


--5-----------5h-7--5L----5L------------------------------|
--------------6-----6L----6L------------------------------|
--------------------------------------------5-----5-------|
-----------------------------------------------------7----|
-----------------------------------------0----------------|
--------------------------------------1-------------------|


--5--------5-------------|--3--0----------------------|
--6--------------7-------|-----------------0----------|
-----------5-------------|--------------0-----0-------|
-------------------------|-----------2-----------2----|
--------------------0----|----------------------------|
-------------------------|--------0-------------------|


--0--------------3----------------------|
-----------------------------0----------|
--------------------------------0-------|
-----------------------------------2----|
----------------------------------------|
--------------------0-------------------|


--5L----------5--7--5L----5L------------------------------|
--------------------------------------------7L-7--7-------|
-----------------------------------------7-----------7----|
--------------------------------------0-------------------|
----------------------------------------------------------|
----------------------------------------------------------|


--5--------------3-----------5----------|
-----------------------7--------3-------|
--------------------------7--------2----|
--------------------0-------------------|
----------------------------------------|
----------------------------------------|


--0--------0----------------------------|
--------3-------------------------------|
--------------------------0L-0--0-------|
-----------------------2-----------2----|
--------------------3-------------------|
----------------------------------------|


--0-----------0-------------------------|
-----------------3----------------------|
----------------------------------------|
--------------------0h-2----------------|
--------------------------3-----3--2----|
-----------------------------3----------|


--0-----------0L------------------------|
-----------3----------------------------|
--------------------------2L-2--2-------|
-----------------------2-----------2----|
--------------------0-------------------|
----------------------------------------|


--0--------------0----------------------|--3--------1----------------|
--------------------3--------2----------|-----1--------1-------------|
-----------------------2--------2-------|--------2--------2----------|
--------------------------2-------------|-----------------------3----|
----------------------------------------|----------------------------|
-----------------------------------3----|--------------------1-------|


--0L----------0-------------------------|
-----------------3--1--------1----------|
--------------------2-----------2-------|
--------------------3-------------------|
----------------------------------------|
----------------------------------------|


--0h-1--0L----------0-------------------------------------|--0----------|
--------------------------------------------------1--3----|-----10------|
-----------------------------------------------2----------|-------------|
--------------------------------------3-------------------|--------7----|
----------------------------------------------------------|--------8----|
----------------------------------------------------------|-------------|


--10-8----------------------|----------------|-------------------------|
--------------6L-6--6-------|--10-6----------|--8L---------------------|
-----------7-----------7----|--7--6----------|--5-----------5----------|
----------------------------|--------8-------|--5--------------5-------|
----------------------------|----------------|-----0--------------7L---|
--------6-------------------|-----------6----|-------------------------|


-----------5-------------------|--3----------------------|
--8-----------3--6-------------|--6----------------------|
--------------4----------------|--3----------------------|
-------------------------------|-----------------3-------|
--------------------0----------|-----------3--4----------|
--------------------------4----|--------------------3----|


--3--------5-----1-------|--3--------13-12------------------------|
--5-----------2----------|-----------13----13---------------------|
--------------------0----|----------------------------------------|
-------------------------|--------------------------3-------------|
--------------------4----|-----------------------3-----0L-0L------|
-------------------------|--------------------1-------------------|


--------5--------5-------------|--10-8----------------------|
-----13-8----------------------|-----------------6----------|
--12----5----------------------|--------------7-----7-------|
-------------------------------|-----------8-----------8----|
--------------------0-----8----|----------------------------|
-------------------------------|--------6-------------------|


--5--1----------------------|--3----------------------|
--------------3-----3-------|--------------1----------|
-----------3-----------3----|-----------0-----0-------|
--------3-------------------|--------2-----------2----|
-----------------1----------|-----0-------------------|
----------------------------|-------------------------|


--3--------5----------------------------|--3----------------------|
-----------------6----------------------|-------------------------|
--------------7-----------0-------------|-----------------2-------|
-----------------------2----------------|--------0--3--0-----0----|
--------------------0-------------------|-------------------------|
----------------------------------------|-----3-------------------|


--3--------5----------------------------|
-----------------6--0-------------------|
--------------7-----------2-------------|
-----------------------0-----0L-0-------|
----------------------------------------|
----------------------------------------|


----------------------------------------|
--8-----6--8L-8L------------------------|
--------------------------8L-8--8-------|
-----------------------8-----------8----|
--------------------6-------------------|
----------------------------------------|


----------------------------------------|
--8L----------8--6----------------------|
--------------------------7--8--7-------|
-----------------------8-----------8----|
--------------------6-------------------|
----------------------------------------|


----------------------------------------|-------------|----------------|
--8-----6--8L-8-------------------------|--6----------|----------------|
--------------------------7L-7--7-------|--7--8-------|--7-------------|
-----------------------8-----------8----|-----8--8----|--8--8L---------|
--------------------6-------------------|--------6L---|--------6--6L---|
----------------------------------------|-------------|----------------|


---------||--3-------------|--3-------|--1-------------|--1-------|
---------||-----6----------|--5-------|-----4----------|----------|
--------o||--3-----5-------|----------|--3-----3-------|--3-------|
--8-----o||----------------|----------|----------------|----------|
-----6---||----------------|----------|----------------|----------|
---------||-----------4L---|-----4----|-----------3L---|-----3----|


--------4-------|--------1-------|----------|----------|----------|----------||
--4--2----------|--4-------------|--1-------|----------|----------|----------||
--3-------------|----------------|--0-------|--0-------|--12L-----|--12------||
--4-------------|----------------|----------|----------|----------|----------||
----------------|----------------|----------|----------|----------|----------||
-----------2L---|-----------2----|-----0L---|-----0----|-----3L---|-----3----||

Login or Register to remove this ad.

1 comment on Rito Village Night

Can you add en external link

Can you add en external link to the Guitar Pro tab? I get en error when trying to hit "Download".I tried it on different computers, and it seems it's everybody's problem.