Rito Village (Day) (The Legend of Zelda: Breath of the Wild) Guitar Tab

Submitted: Oct 18, 2018 by Bradsta

5
Average: 5 (2 votes)
Download | Listen
Game: The Legend of Zelda: Breath of the Wild
Composer(s): Yasuaki Iwata, Manaka Kataoka
Style: Arrangement, Fingerstyle
Series: Legend of Zelda

Click here for a video example.

AutoScroll: Slow | Medium | Fast
 
Game: The Legend of Zelda: Breath of the Wild
Song: Rito Village (Day)
Composers: Manaka Kataoka, Yasuaki Iwata, and Hajime Wakai
Tabber: Bradsta
Tuning: Standard
Date: May 9th, 2018
      
e|------------8-------------------|--------------------15----------|------------------18------------|------------------------6-------|
B|----------8---8-----------------|------------11------------------|------------16------------------|----------------------6---6-----|
G|--------8-----------------------|--------------------------------|--------------------------------|--------------------6-----------|
D|------10------------------------|--------------------------------|--------------------------------|------------------6-------------|
A|----10--------------------------|--------------------------------|--------------------------------|----------------9---------------|
E|8-------------------------------|--------------------------------|--------------------------------|------------9-------------------|
       
e|--------------------------------|15--------------------------11--|------------------------6-------|4-------11----------------------|
B|------------------------13------|--------------------------------|------------------------4-------|----------------11--------------|
G|--------------------------------|--------------------------------|------------------------4-------|--------------------------------|
D|--------------------------------|--------------------------------|------------------------4-------|--------------------------------|
A|--------------------------------|--------------------------------|--------------------------------|--------------------------------|
E|--------------------------------|--------------------------------|--------------------------------|--------------------------------|
       
e|------------4-------2-------9---|--------------------------------|2-------0---------------14------|--------16----------------------|
B|------------2-------------------|----9---------------------------|2---------------12--------------|----------------16--------------|
G|------------3-------------------|--------------------------------|2-------------------------------|--------------------------------|
D|------------3-------------------|--------------------------------|2-------------------------------|--------------------------------|
A|--------------------------------|--------------------------------|--------------------------------|--------------------------------|
E|--------------------------------|--------------------------------|--------------------------------|--------------------------------|
       
e|--------------------------------|--------------------------------|--------------------------------|--------------------------------|
B|--------11----------------------|--------------------------------|--------------------------------|--------------------------------|
G|--------------------------------|------------1-------1-------1---|----1-------1-------4-------4---|----4-------6-------6-------6---|
D|--------------------------------|--------2-------4-------4-------|4-------4-------7-------7-------|7-------9-------9-------9-------|
A|--------------------------------|----2---------------------------|--------------------------------|--------6-----------------------|
E|--------------------------------|0-------------------------------|----------------7---------------|--------------------------------|
       
e|--------------------------------|--------------------7-------7---|----7---10------------------6---|--------5---6-------8-----------|
B|----------------------------9---|----9-------9---10------10------|10--------11-7-------3----------|--------3-----------------------|
G|----9-------9-------9---11------|11------11----------------------|---------------7----------------|------------3---------------7---|
D|12------12------12--------------|----------------10--------------|-----------------8--------------|----5-----------5-------5-------|
A|------------------------12------|--------------------------------|-------------------9-5----------|5-------------------5-----------|
E|10------------------------------|--------------------------------|----------------------------3---|--------------------------------|
       
e|5-----------3-------------------|----------------------------6---|--------5---6---3---8-----------|13----------10------------------|
B|------------------------4-------|----3---------------3---3-------|--------3-----------------------|--------------------------------|
G|--------------------3-------3---|--------------------------------|------------3-------------------|10----------------------7-------|
D|----------------5---------------|5-----------5-------------------|----5-----------5-----------10--|--------------------8-------8---|
A|5-----------6-------------------|--------5-------5---------------|5-----------------------8-------|----------------8---------------|
E|--------------------------------|----3-----------------------3---|--------------------8-----------|------------6-------------------|
        
e|------------------------6---8---|--------10p8--------------------|--------8---6-----------3-------|----3-------------------6---8---|
B|----6---------------------------|--------------------------------|----9-------------------3-------|--------3-----------------------|
G|----7---7-----------------------|--------8-----------------------|8---------------------------3---|------------3-------------------|
D|----8-------8-------8-----------|----10------10--------------10--|--------------------5-----------|5---------------5---------------|
A|8---8-----------8-------8-------|11--------------11------11------|----------------5---------------|--------------------5-----------|
E|----------------------------11--|--------------------11----------|------------3-------------------|------------------------3---8---|
       
e|--------10p8--------------------|--------6---3---------------3---|----3-----------------------3---|--------1---3-------1-----------|
B|--------------------------------|------------------------6---4---|----4---4---------------6-------|--------1-------1-------1-------|
G|--------------------10----------|--------------------3-----------|3---3-------3-------------------|----0-------0---------------0---|
D|--------10--------------10------|----------------5---------------|----------------5---------------|2-------------------------------|
A|8---12------12--8-----------12--|8-----------6-------------------|----6---------------6---5---3---|--------------------------------|
E|--------------------------------|----8---------------------------|--------------------------------|--------------------------------|
      
e|--------------------------------|----------------------------6h--|8---6h--8---6h--8---9h--11--9h--|11--9-------13----------11------|
B|5-----------8-----------6---8---|----8h--9---8h--9---8h--9-------|--------------------------------|--------13----------9---9-------|
G|----5-------------------5-------|--------------------------------|--------------------------------|----------------10----------10--|
D|--------5-----------6-----------|--------------------------------|--------------------------------|------------11------------------|
A|----------------6---------------|----------------------------6---|--------------------11----------|--------------------------------|
E|--------6---4-------------------|----4---------------------------|--------------------------------|--------------------------------|
     
e|----8-----------------------6---|------------3-------------------|8-----------6-------------------|----------------8-----------6---|
B|----------------9---------------|--------4-------4---------------|----6---9-------------------6---|--------------------6h--9-------|
G|------------6---6---------------|----5---------------5-----------|------------------------6-------|6-------------------------------|
D|11------6-------6---------------|5-------------------5-----------|--------------------8-----------|----8-------8-------------------|
A|----8-----------8-----------3---|--------------------------------|----------------8---------------|--------8-----------------------|
E|--------------------------------|--------------------------------|------------6-------------------|----------------------------4---|
      
e|--------4---6-------4-----------|------------13----------11------|----8-----------4-------4---6---|--------4---6-------6h--8---6---|
B|------------4-----------4-------|--------13----------9---9-------|--------------------6-----------|--------4-----------------------|
G|--------5-------5-----------5---|----------------10----------10--|----------------5---------------|----5-----------5---------------|
D|----6---------------------------|6-----------11------------------|11----------6-------------------|5-------------------5-----------|
A|6-------------------------------|----6---------------------------|--------8-------------------3---|--------------------------------|
E|--------------------------------|--------------------------------|----8---------------------------|--------------------------------|
  
e|8-----------6---------------6---|----------------8-----------6---|--------4---6-------------------|------------2---4---2---4---2---|
B|----6h--9---------------9---6---|--------------------6h--9-------|------------4-------2---4---2---|4---2---4-----------------------|
G|----5-------------------7-------|7-------------------------------|--------5-----------------------|--------------------------------|
D|5-------------------8-----------|------------8-------------------|----6---------------------------|--------------------------------|
A|----------------8---------------|--------8-----------------------|6-------------------------------|------------4-------------------|
E|------------6-------------------|----6-----------------------4---|--------------------2-----------|--------------------------------|
    
e|4---6---7---------6-7-9-11131416|--------------------14----------|------------9-------------------|--------------------------------|
B|------------7---9---------------|--------------------------------|--------------------------------|--------------------------------|
G|--------------------------------|--------------------------------|--------------------------------|--------------------------------|
D|------------------------------16|--------------------11----------|--------------------------------|--------------------------------|
A|--------------------------------|--------------------------------|--------------------------------|--------------------------------|
E|--------------------------------|--------------------------------|------------9-------------------|--------------------------------|
 


Tablature Legend
----------------
h - hammer-on
p - pull-off
Login or Register to remove this ad.