Ads

Main Theme (The Legend of Zelda: Breath of the Wild) Guitar Tab

Submitted: Feb 10, 2018 by BacardiBreezer (Last updated: Jul 19, 2018)

5
Average: 5 (4 votes)
Download | Listen
Game: The Legend of Zelda: Breath of the Wild
Composer(s): Yasuaki Iwata, Manaka Kataoka
Style: Transcription
Series: Legend of Zelda

AutoScroll: Slow | Medium | Fast
Breath of the Wild - Main Theme
Composer: Manaka Kataoka
Tabbed by BB
2/8/2018

tabbed for solo guitar and inspired by the cover by FamilyJules7x

(Piano intro)
e|--15-13--|    |--18-16--|
B|---------|    |---------|
G|---------|    |---------|
D|---------|    |---------|
A|---------|    |---------|
E|---------| x5 |---------| x7

e|--8---9-11---8--------|------------------|--8-----9-11---8---------------8---|
B|--9-------------11--9-|---8--------------|--9---------------11--9----11------|
G|--10------------------|----------10------|--10-------------------------------|
D|--10------------------|------------------|--11-------------------------------|
A|----------------------|------------------|-----------------------------------|
E|----------------------|------------------|-----------------------------------|

Flute                                                                           Oboe/Strings (add slides)
e|-----11--11-----------|--/11-----------9--|--11---16p14h16---14-11h13p11~--| |------/13---11~----|
B|--9-------------11p9~-|------11-12~-------|-----9--------------------------| |-------------------|
G|-------------11-------|-------------------|--------------------------------| |---13--------------|
D|----------------------|-------------------|--------------------------------| |-------------------|
A|----------------------|-------------------|--------------------------------| |-------------------|
E|----------------------|-------------------|--------------------------------| |-------------------| x3

Accordian
e|--12----14-15---12--------------------------|--12----13-15---12-----------------/12~--|
B|---------------------15---13------12---10~--|---------------------15--13--15----------|
G|--------------------------------------------|-----------------------------------------|
D|--------------------------------------------|-----------------------------------------|
A|--------------------------------------------|-----------------------------------------|
E|--------------------------------------------|-----------------------------------------|

Trumpet
e|-------------------------------------9-11------9-----13---14~-|--13-14-16~---14-16-19---/18------|
B|-----------------------------------9------9-11----------------|----------------------------------|
G|------12-11--------10-11-13-----11----------------------------|----------------------------------|
D|--10------------11--------------------------------------------|----------------------------------|
A|--------------------------------------------------------------|----------------------------------|
E|--------------------------------------------------------------|----------------------------------|

Main Melody
e|---------6h8------------|-------------------------|--------10h11---10----|-----------------------|
B|---8------------11--8~--|--8----------8-----------|--8-----------------8-|--8----11-10--8--7~----|
G|------------------------|------------------8--10~-|----------------------|-----------------------|
D|-----10-----------------|----8-10-------11--------|----10----------------|-----------------------|
A|------------------------|-------------------------|----------------------|-----------------------|
E|------------------------|-------------------------|----------------------|-----------------------|

e|---------6/8------------|-------------------------|--------10/11---10----|---------------8~------|
B|---8------------11--8~--|--8----------8-----------|--8-----------------8-|--8----10-11-----------|
G|------------------------|------------------8--10~-|----------------------|-----------------------|
D|-----10-----------------|----8-10-------11--------|----10----------------|-----------------------|
A|------------------------|-------------------------|----------------------|-----------------------|
E|------------------------|-------------------------|----------------------|-----------------------|

e|--------------------------13-------15-15-15----------20~---|
B|--15----13-----15----13------15-13-------------16-18-------|
G|-----15-----------14---------------------------------------|
D|-----------------------------------------------------------|
A|-----------------------------------------------------------|
E|-----------------------------------------------------------|

e|-------------13-15-13-/22---|---------20----------|
B|--13-15-16------------------|---------20----------|
G|----------------------------|---------17----------|
D|----------------------------|---------------------|
A|----------------------------|---------------------|
E|----------------------------|---------------------|
Login or Register to remove this ad.