Ads

Link’s Memories (The Legend of Zelda: Breath of the Wild) Guitar Tab

Submitted: Jun 22, 2017 by bravetiger1 (Last updated: Jul 19, 2018)

5
Average: 5 (1 vote)
Download | Listen
Game: The Legend of Zelda: Breath of the Wild
Composer(s): Yasuaki Iwata, Manaka Kataoka
Style: Transcription
Series: Legend of Zelda

AutoScroll: Slow | Medium | Fast
The Legend of Zelda: Breath of the Wild
Link’s Memories
Yasuaki Iwata & Manaka Kataoka
bravetiger1
June 21, 2017


3/4

 |       |       |        |       |       |        |       |       |        
|------------------------|------------------------|------------------------|
|--------1---------------|--------1---------------|3-------1---------------|
|0-------------------3---|0-------------------3---|0---3---------------3---|
|------------------------|------------------------|------------------------|
|----3-------------------|----3-------------------|----3-------------------|
|------------------------|------------------------|------------------------|
 
 |       |       |        |       |       |        |       |       |        
|----------------1-------|----3---3---3-----------|----8-------------------|
|3-------1-----------3---|1-------1-----------4---|6-------1---------------|
|0---2---------------3---|0-------------------3---|0-------------------3---|
|------------------------|------------------------|------------------------|
|----3-------------------|----3-------------------|------------------------|
|------------------------|------------------------|----8-------------------|
 
 |       |       |        |       |       |        |       |       |        
|------------------------|------------------------|--------8---------------|
|--------1---------------|------------------------|--6-8---8---------------|
|0-------------------3---|------------------------|5-------10--------------|
|------------------------|----------3-5-------5---|------------------------|
|----3-------------------|--------3-------3-5-----|------------------------|
|------------------------|1-----------------------|------------------------|



The final three measures are octave dropped above. If you’re up to a challenge, you can try playing it
in the original octave, shown below, but good luck, and may your fingers RIP.
 
 |       |       |        |       |       |        |       |       |        
|------------------------|------------------------|8-13-15-22--------------|
|--------1---------------|--------------------8---|--------20--------------|
|0-------------------3---|----------------5-7-----|--------22--------------|
|------------------------|----------3-5-----------|------------------------|
|----3-------------------|--------3---------------|------------------------|
|------------------------|1-----------------------|------------------------|

Login or Register to remove this ad.