Ads

The Legend of Zelda - Breath of the Wild Theme (The Legend of Zelda: Breath of the Wild) Guitar Tab

Submitted: May 26, 2019 by keyofaaron (Last updated: Jun 23, 2019)

5
Average: 5 (1 vote)
Download | No audio :(
Game: The Legend of Zelda: Breath of the Wild
Composer(s): Yasuaki Iwata, Manaka Kataoka
Style: Arrangement, Fingerstyle, Natural harmonics, Tapping
Series: Legend of Zelda

Click here for a video example.

AutoScroll: Slow | Medium | Fast
This is a full song guitar tab for The Legend of Zelda - Breath of the Wild Theme. It requires a capo on the
first fret. For a reference to the YouTube guitar cover this is based off of, visit the following link:

https://www.youtube.com/watch?v=SVtojkgoQY0

A tip for getting comfortable with this song is to pay close attention to the fingering being used in the 
video. This could make a huge difference when it comes to comfort and quick switching of the chords.

Good luck!

[Intro] 0:00
   1   e   +   a   2   e   +   a   3   e   +   a   4   e   +   a  
E|---------0---------------0---------------0---------------0---------|
B|---------0---------------0---------------0---------------0---------|
G|-12--------------12--------------12--------------12----------------|
D|-13--------------13--------------13--------------13----------------|
A|-------------------------------------------------------------------|
E|-------------------------------------------------------------------|

measure of 5/4:
   1   e   +   a   2   e   +   a   3   e   +   a   4   e   +   a  
E|-0---------------0---------------0---------------0-----------------|
B|-11--------------11--------------11--------------11----------------|
G|---------13--------------13--------------13--------------13--------|
D|-------------------------------------------------------------------|
A|-------------------------------------------------------------------|
E|-------------------------------------------------------------------|

   5   e   +   a     
E|-0----------------|
B|-11---------------|
G|---------13-------|
D|------------------|
A|------------------|
E|------------------|

into 3/4 timing:
   1   e   +   a   2   e   +   a   3   e   +   a  
E|---------0---------------0-------0-----------------|
B|---------0---------------0-------11----------------|
G|-12--------------12----------------------13--------|
D|-13--------------13--------------------------------|
A|---------------------------------------------------|
E|---------------------------------------------------|

[A Section] 0:04
   1   e   +   a   2   e   +   a   3   e   +   a   
E|----8--------------------10------11----------------|
B|---0-----------------------------------------------|
G|--0------------------------------------------------|
D|-0-------------------------------------------------|
A|---------------------------------------------------|
E|---------------------------------------------------|

   1   e   +   a   2   e   +   a   3   e   +   a   
E|-8---------------6---------------4-----------------|
B|-9--------------(0)--------------4-----------------|
G|-----------------5---------------5-----------------|
D|---------------------------------------------------|
A|---------------------------------------------------|
E|---------------------------------------------------|

   1   e   +   a   2   e   +   a   3   e   +   a   
E|---------------------------------3-----------------|
B|---0-----------------------------------------------|
G|--0------------------------------------------------|
D|-5-------------------------------------------------|
A|---------------------------------------------------|
E|---------------------------------------------------|

   1   e   +   a   2   e   +   a   3   e   +   a   
E|-0-------------------------------------------------|
B|---------------------------------------------------|
G|---------------------------------------------------|
D|---------------------------------------------------|
A|---------------------------------------------------|
E|---------------------------------------------------|

   1   e   +   a   2   e   +   a   3   e   +   a   
E|-8-----------------------10------11----------------|
B|-----------------0-----------------------8---------|
G|--------(0)----------------------8-----------------|
D|---------6---------------10------------------------|
A|-8-------------------------------------------------|
E|---------------------------------------------------|

   1   e   +   a   2   e   +   a   3   e   +   a   
E|-8-------------------------------------------------|
B|-----------------11----------------------11--------|
G|---------------------------------13----------------|
D|---------------------------------13----------------|
A|---------10------10--------------------------------|
E|---------------------------------------------------|

   1   e   +   a   2   e   +   a   3   e   +   a   
E|---------------------------------------------------|
B|-11~-----------------------------13----------------|
G|---------------------------------------------------|
D|-11~-----------------------------10----------------|
A|---------------------------------------------------|
E|---------------------------------------------------|

   1   e   +   a   2   e   +   a   3   e   +   a   
E|-16--------------------------------------11--------|
B|---------------------------------9-----------------|
G|---------------------------------------------------|
D|---------------------------------------------------|
A|---------------------------------------------------|
E|---------------------------------------------------|

0:20
   1   e   +   a   2   e   +   a   3   e   +   a   
E|-11--------------------------------------11--------|
B|---------7---/---9------t11-----p9-----------------|
G|---------------------------------------------------|
D|---------6---/---9---------------------------------|
A|-7-------------------------------------------------|
E|---------------------------------------------------|

   1   e   +   a   2   e   +   a   3   e   +   a   
E|-11----------------------9--------------t16---------|
B|---------11------12--------------12----------------|
G|---------------------------------------------------|
D|-11------------------------------------------------|
A|-----------------9---------------------------------|
E|---------------------------------------------------|

   1   e   +   a   2   e   +   a   3   e   +   a   
E|p11--------------16h18p16----------------14--------|
B|---------------------------------------------------|
G|---------13--------------15------------------------|
D|---------------------------------------------------|
A|---------------------------------------------------|
E|-11------------------------------------------------|

   1   e   +   a   2   e   +   a   3   e   +   a   
E|---------14-----------------------------12/13------|
B|-16h18p16--------16--------------------------------|
G|-------------------------15------13----------------|
D|-------------------------13------------------------|
A|---------------------------------------------------|
E|---------------------------------------------------|

   1   e   +   a   2   e   +   a   3   e   +   a   
E|-11------------------------------------------------|
B|---------------------------------------------------|
G|----------------------------------------8/10-------|
D|----------------------------------6----------------|
A|-7-------------------------------------------------|
E|---------------------------------------------------|

   1   e   +   a   2   e   +   a   3   e   +   a   
E|---------------------------------------------------|
B|---------------------------------------------------|
G|-8--------------------------------------8/10-------|
D|---------------------------------6-----------------|
A|-9-------------------------------------------------|
E|---------------------------------------------------|

   1   e   +   a   2   e   +   a   3   e   +   a   
E|---------------------------------------------------|
B|---------------------------------------------------|
G|---------8-----------------------------------------|
D|---------------------------------------------------|
A|---------------------------------------------------|
E|-9-------------------------------------------------|

   1   e   +   a   2   e   +   a   3   e   +   a   
E|---------------------------------------------------|
B|-9*------------------------------------------------|
G|---------------------------------------------------|
D|---------------------------------------------------|
A|---------------------------------------------------|
E|---------------------------------------------------|

[Section B] 0:35
   1   e   +   a   2   e   +   a   3   e   +   a   
E|---------------------------------------------------|
B|-5-----------------------6-------8-----------------|
G|-5-----------------------7-------9-----------------|
D|---------------------------------------------------|
A|-7----------------7--------------------------------|
E|---------------------------------------------------|

   1   e   +   a   2   e   +   a   3   e   +   a   
E|---------------------------------5-----------------|
B|-5-------------------------------------------------|
G|-5---------------7---------------5-----------------|
D|---------------------------------7-----------------|
A|-7-------------------------------------------------|
E|---------------------------------5-----------------|

   1   e   +   a   2   e   +   a   3   e   +   a   
E|---------------------------------------------------|
B|-------------------------5-------------------------|
G|-----------------5---------------------------------|
D|---------7----------------------7/9----------------|
A|---------------------------------------------------|
E|-5-------------------------------------------------|

   1   e   +   a   2   e   +   a   3   e   +   a   
E|-5-------5-----------------------5-----------------|
B|-5-------5-----------------------5-----------------|
G|-5-------5-------5-------7-------------------------|
D|-7-------------------------------------------------|
A|---------------------------------------------------|
E|---------------------------------------------------|

   1   e   +   a   2   e   +   a   3   e   +   a   
E|-------------------------0-------3-----------------|
B|-5-----------------------0-------3-----------------|
G|-5-------------------------------------------------|
D|---------------------------------------------------|
A|---------------------------------------------------|
E|-0---------------0---------------0-----------------|

   1   e   +   a   2   e   +   a   3   e   +   a   
E|---------------------------------------------------|
B|-5---------------3---------------(0)---------------|
G|-4---------------2----------------5----------------|
D|---------------------------------------------------|
A|---------------------------------------------------|
E|-3---------------3---------------------------------|

   1   e   +   a   2   e   +   a   3   e   +   a   
E|---------------------------------------------------|
B|-3-------------------------------5-----------------|
G|-5-------------------------------5-----------------|
D|---------------------------------------------------|
A|-3----------------3--------------3-----------------|
E|---------------------------------------------------|

   1   e   +   a   2   e   +   a   3   e   +   a   
E|-----------------------------------------3---------|
B|-3-------------------------------------------------|
G|-----------------5---------------5-----------------|
D|---------------------------------------------------|
A|-------------------------3-------------------------|
E|---------------------------------------------------|

0:48
   1   e   +   a   2   e   +   a   3   e   +   a   
E|---------------------------------------------------|
B|-7-------------------------------6-------7---------|
G|-------------------------6-------------------------|
D|---------------------------------------------------|
A|---------------------------------------------------|
E|-7---------------7---------------------------------|

   1   e   +   a   2   e   +   a   3   e   +   a   
E|-----------------------------------------9---------|
B|-9-----------------------7-------9-----------------|
G|---------------------------------------------------|
D|---------------------------------------------------|
A|---------------------------------------------------|
E|-6---------------6---------------6-----------------|

   1   e   +   a   2   e   +   a   3   e   +   a   
E|-11------------------------------13----------------|
B|-----------11----14--------------------------------|
G|-------13------------------------------------------|
D|---------------------------------------------------|
A|-12--------------12--------------12----------------|
E|---------------------------------------------------|

   1   e   +   a   2   e   +   a   3   e   +   a   
E|-14------------------------------13------14--------|
B|---------------------------------------------------|
G|---------------------------------------------------|
D|---------------------------------------------------|
A|-11--------------11--------------11----------------|
E|---------------------------------------------------|

   1   e   +   a   2   e   +   a   3   e   +   a   
E|-16------------------------------------------------|
B|---------------------------------------------------|
G|---------------------------------------------------|
D|---------------------------------------------------|
A|---------------------------------------------------|
E|-10--------------10--------------10----------------|

   1   e   +   a   2   e   +   a   3   e   +   a   
E|---------------------------------14---16---19------|
B|---------------------------------------------------|
G|---------------------------------------------------|
D|---------------------------------------------------|
A|---------------------------------------------------|
E|-10--------------10--------------10----------------|

   1   e   +   a   2   e   +   a   3   e   +   a   
E|-18~-----------------------------------------------|
B|---------------------------------------------------|
G|---------------------------------------------------|
D|---------------------------------------------------|
A|-0---------------0---------------0-----------------|
E|---------------------------------------------------|

   1   e   +   a   2   e   +   a   3   e   +   a   
E|---------------------------------------------------|
B|---------------------------------------------------|
G|---------------------------------------------------|
D|---------------------------------------------------|
A|-0---------------0---------------0-----------------|
E|---------------------------------------------------|

[Section C] 1:02
   1   e   +   a   2   e   +   a   3   e   +   a   
E|---------------------------------------------------|
B|-8--------------11/13--------------------11--------|
G|-8-------------------------------------------------|
D|---------10----------------------------------------|
A|---------------------------------------------------|
E|-8-------------------------------8-----------------|

   1   e   +   a   2   e   +   a   3   e   +   a   
E|---------------------------------------------------|
B|-8---------------8---------------8-----------------|
G|-8---------------7---------------8-----------------|
D|---------------------------------------------------|
A|-0---------------0---------------0-----------------|
E|---------------------------------------------------|

   1   e   +   a   2   e   +   a   3   e   +   a   
E|---------------------------------------------------|
B|-8-----------------------8---------------8---------|
G|-8-----------------------7---------------7---------|
D|---------8---/---10--------------------------------|
A|---------------------------------------------------|
E|-0-------------------------------0-----------------|

   1   e   +   a   2   e   +   a   3   e   +   a   
E|---------------------------------------------------|
B|-8-------------------------------------------------|
G|-----------------8---------------10----------------|
D|---------11----------------------------------------|
A|---------------------------------------------------|
E|-9---------------9---------------9-----------------|

   1   e   +   a   2   e   +   a   3   e   +   a   
E|---------------10/11---------------------10--------|
B|-8-------------------------------------------------|
G|-8-------------------------------------------------|
D|---------10----------------------------------------|
A|---------------------------------------------------|
E|-8---------------8---------------8-----------------|

   1   e   +   a   2   e   +   a   3   e   +   a   
E|---------------------------------------------------|
B|-8---------------8---------------8-----------------|
G|-9---------------7---------------9-----------------|
D|---------------------------------------------------|
A|-7---------------7---------------7-----------------|
E|---------------------------------------------------|

   1   e   +   a   2   e   +   a   3   e   +   a   
E|---------------------------------------------------|
B|-8-------8---------------11--------------10--------|
G|-9-------7-----------------------------------------|
D|---------------------------------------------------|
A|-8---------------8---------------8-----------------|
E|---------------------------------------------------|

   1   e   +   a   2   e   +   a   3   e   +   a   
E|---------------------------------------------------|
B|-----------------8---------------------------------|
G|---------------------------------------------------|
D|---------------------------------------------------|
A|-10--------------10--------------10----------------|
E|---------------------------------------------------|

   1   e   +   a   2   e   +   a   3   e   +   a   
E|---------------------------------------------------|
B|-8--------------11/13--------------------11--------|
G|-8-------------------------------------------------|
D|---------10----------------------------------------|
A|---------------------------------------------------|
E|-8-------------------------------8-----------------|

   1   e   +   a   2   e   +   a   3   e   +   a   
E|---------------------------------------------------|
B|-8---------------8---------------8-----------------|
G|-8---------------7---------------8-----------------|
D|---------------------------------------------------|
A|-0---------------0---------------0-----------------|
E|---------------------------------------------------|

   1   e   +   a   2   e   +   a   3   e   +   a   
E|---------------------------------------------------|
B|-8-----------------------8---------------8---------|
G|-8-----------------------7---------------7---------|
D|---------8---/---10--------------------------------|
A|---------------------------------------------------|
E|-0-------------------------------0-----------------|

   1   e   +   a   2   e   +   a   3   e   +   a   
E|---------------------------------------------------|
B|-8-------------------------------------------------|
G|-----------------8---------------10----------------|
D|---------11----------------------------------------|
A|---------------------------------------------------|
E|-9---------------9---------------9-----------------|

   1   e   +   a   2   e   +   a   3   e   +   a   
E|---------------10/11---------------------10--------|
B|-8-------------------------------------------------|
G|-8-------------------------------------------------|
D|---------10----------------------------------------|
A|---------------------------------------------------|
E|-8---------------8---------------8-----------------|

   1   e   +   a   2   e   +   a   3   e   +   a   
E|---------------------------------------------------|
B|-8---------------8---------------8-----------------|
G|-9---------------7---------------9-----------------|
D|---------------------------------------------------|
A|-7---------------7---------------7-----------------|
E|---------------------------------------------------|

   1   e   +   a   2   e   +   a   3   e   +   a   
E|---------------------------------------------------|
B|-8-------8---------------10--------------11--------|
G|-9-------7-----------------------------------------|
D|-------------------------7---------------8---------|
A|-8---------------8---------------------------------|
E|---------------------------------------------------|

   1   e   +   a   2   e   +   a   3   e   +   a   
E|---------------------------------------------------|
B|-13------------------------------------------------|
G|---------------------------------------------------|
D|-10------------------------------------------------|
A|---------------------------------------------------|
E|---------------------------------------------------|

[Outro] 1:29
   1   e   +   a   2   e   +   a   3   e   +   a   
E|-10------------------------------------------------|
B|---------11------13--------------------------------|
G|---------------------------------------------------|
D|---------------------------------------------------|
A|-11--------------11--------------------------------|
E|---------------------------------------------------|

   1   e   +   a   2   e   +   a   3   e   +   a   
E|-10------------------------------13----------------|
B|---------10------13----------------------15--------|
G|---------------------------------------------------|
D|---------------------------------------------------|
A|-13--------------13--------------13----------------|
E|---------------------------------------------------|

   1   e   +   a   2   e   +   a   3   e   +   a   
E|---------15------15------15------------------------|
B|-----------------------------------------16--------|
G|-17------------------------------------------------|
D|---------------------------------------------------|
A|-15--------------15--------------15----------------|
E|---------------------------------------------------|

   1   e   +   a   2   e   +   a   3   e   +   a   
E|---------20----------------------8-------10--------|
B|-18------------------------------0-----------------|
G|---------------------------------------------------|
D|-15--------------15----------------------8---------|
A|---------------------------------------------------|
E|---------------------------------------------------|

   1   e   +   a   2   e   +   a   3   e   +   a   
E|-11----------------------13------15----------------|
B|---------------------------------------------------|
G|---------------------------------------------------|
D|---------------------------------------------------|
A|-10------------------------------------------------|
E|---------------------------------------------------|

   1   e   +   a   2   e   +   a   3   e   +   a   
E|-13--------------10*-------------------------------|
B|---------------------------------------------------|
G|---------------------------------------------------|
D|---------------------------------------------------|
A|---------------------------------------------------|
E|---------------------------------------------------|

   1   e   +   a   2   e   +   a   3   e   +   a   
E|----15---------------------------------------------|
B|---13----------------------------------------------|
G|--12-----------------------------------------------|
D|-10------------------------------------------------|
A|---------------------------------------------------|
E|---------------------------------------------------|

************************************

| *  Natural harmonic
| /  Slide up
|( ) Alternate note
| t  Right hand fingertap
| h  Hammer-on
| p  Pull-off
| ~    Vibrato

************************************
Login or Register to remove this ad.

1 comment on The Legend of Zelda - Breath of the Wild Theme

The video clearly shows the

The video clearly shows the guy playing with capo 1. That means all your notes are off. You tabbed the frets he was playing, but you didn't note that he's in capo 1. That means all your open strings (0s) are actually 1s. Normally when writing in a capo, you transpose all the notes down. That would mean in the context of capo 1, the open strings are still 0, but all the 9s are 8s and the 6s are 5s, etc. It's confusing to read your tab otherwise.

Ex:

capo 1

[Intro] 0:00
   1   e   +   a   2   e   +   a   3   e   +   a   4   e   +   a  
E|---------0---------------0---------------0---------------0---------|
B|---------0---------------0---------------0---------------0---------|
G|-11--------------11--------------11--------------11----------------|
D|-12--------------12--------------12--------------12----------------|
A|-------------------------------------------------------------------|
E|-------------------------------------------------------------------|

measure of 5/4:
   1   e   +   a   2   e   +   a   3   e   +   a   4   e   +   a  
E|-0---------------0---------------0---------------0-----------------|
B|-10--------------10--------------10--------------10----------------|
G|---------12--------------12--------------12--------------12--------|
D|-------------------------------------------------------------------|
A|-------------------------------------------------------------------|
E|-------------------------------------------------------------------|


This would be the correct way to notate what he's playing. If you're not using a capo, it would be 


[Intro] 0:00
   1   e   +   a   2   e   +   a   3   e   +   a   4   e   +   a  
E|---------1---------------1---------------1---------------1---------|
B|---------1---------------1---------------1---------------1---------|
G|-12--------------12--------------12--------------12----------------|
D|-13--------------13--------------13--------------13----------------|
A|-------------------------------------------------------------------|
E|-------------------------------------------------------------------|

measure of 5/4:
   1   e   +   a   2   e   +   a   3   e   +   a   4   e   +   a  
E|-1---------------1---------------1---------------1-----------------|
B|-11--------------11--------------11--------------11----------------|
G|---------13--------------13--------------13--------------13--------|
D|-------------------------------------------------------------------|
A|-------------------------------------------------------------------|
E|-------------------------------------------------------------------|