Kass' Theme (The Legend of Zelda: Breath of the Wild) Mandolin Tab

Submitted: Oct 08, 2018 by Mandolin Wild

0
Download | Listen
Game: The Legend of Zelda: Breath of the Wild
Composer(s): Yasuaki Iwata, Manaka Kataoka
Style: Arrangement, Tremolo
Series: Legend of Zelda

Click here for a video example.

AutoScroll: Slow | Medium | Fast
The Legend of Zelda: Breath of the Wild
Manaka Kataoka
Arr. MandolinWild
https://www.youtube.com/watch?v=kNdFsJjLDUQ

 3/4

  |       |       |         |       |       |         |       |       |        
|-------------------------|-------------------------|-------------------------|
|---------------------3---|-2-----------------------|---------------------2---|
|-----2-----3-2-1-2-------|-0-------3-------3-------|-X---2---0-3-2-1-2-------|
|-------------------------|---------4-------4-------|-------------------------|
 
  |       |       |         |       |       |         |       |       |        
|-------------------------|---------------------3---|-1-----------1---1-------|
|-0-----------------------|-0---------2-0---0---7---|-5-----------5---5-------|
|-2-------2-------2-------|-2-------2-----6---------|---------0-------0-------|
|---------2-------2-------|-7-------0---------------|---------2-------2-------|
 
  |       |       |         |       |       |         |       |       |        
|-1-------3-------1-------|-1-----------------------|---------------------0---|
|-5-------7-------5-------|-5-------3---------------|-------------3---5-------|
|---------0-------0-------|---------2-------2-------|---------2---------------|
|-0-------4-------4-------|-0-------0-------0-------|---------0---------------|
 
  |       |       |         |       |       |         |       |       |        
|-------------------------|-----------------0-------|-------------------------|
|-1-----------5---5-------|-------------5-------5---|-5-----------3---3-------|
|-3-------0-------0-------|---------0---------------|-2-------2-------2-------|
|-3-------3-------3-------|---------3---------------|-2-------2-------2-------|
 
  |       |       |         |       |       |        |       |       |        
|-------------------------|-------------------------|---------0---------------|
|-----------------0---2---|-3-----------5---3-------|-2---------------3-------|
|-----2-------2-----------|-1-------------------1---|-2-----------------------|
|-2-------0---------------|-2-------2---------------|-1-----------------------|
 
  |       |       |         |       |       |         |       |       |        
|-------------------------|-------------------------|-0-----------------------|
|-0-----------------------|-----------------0-2-4-5-|-0-------4-------0-------|
|-2-------2---------------|-------------------------|---------2---------------|
|-2---------------5-------|-2-----------------------|---------2---------------|
 
  |       |       |         |       |       |         |       |       |        
|-----------------0-------|-3-------1-----------0---|-1t----------------------|
|-0-------4-------0-------|-5-------5-----------4---|-5t----------------------|
|-2-------7---------------|-0-------3---------------|-0-----------------------|
|-2-----------------------|-------------------------|-----------------5-------|
 
  |       |       |         |       |       |         |       |       |        
|-------------------------|-------------------------|-1-------0---------------|
|-5-----------------------|---------2-------5-------|-5-------3-----------6---|
|-9-------0---5---5-------|---------3-------5-------|---------2-----------9---|
|-4-------4---------------|-0-----------------------|-5-------0---------------|
 
  |       |       |         |       |       |         |       |       |        
|-------------------------|-------------------------|-----------------0-------|
|-7t----------------------|-0-----------2---3-------|-----------------3-------|
|-10t-----0-------2-------|-3-------2---------------|-2-------2---------------|
|-------------------------|-2-------2---------------|-0-------0---------------|
 
  |       |       |         |       |       |         |       |       |        
|-1-----------0-----------|-----------------0-------|-----------------5-------|
|-2---------------2-------|-3-----------5-----------|-0-----------------------|
|-0-------2---------------|-2-------2---------------|---------3---------------|
|-1-----------------------|-2-------0---------------|---------2---------------|
 
  |       |       |         |       |       |         |       |       |        
|-5-----------4---5-------|-0-------------------0---|-0-----------------------|
|-------------------------|-2-------------------2---|-2-----------------------|
|---------1---------------|-2-------2-------2-------|-2-----------------------|
|---------2---------------|-1---------------1-------|-1---------------1/------|
 
  |       |       |         |       |       |         |       |       |        
|-------------------------|-------------------------|-0-----------------------|
|-------------------------|---------0---2---4---5---|-2-------4---------------|
|-7-------2---2---2-------|---------2---------------|-5-------7---------------|
|-6-------6---6---6-------|-2-------2---------------|---------0---------------|
 
  |       |       |         |       |       |         |       |       |        
|-0-----------0---1---3---|-1-----------------------|-5---------------3-5-3-1-|
|-0-----------------------|-3-----------------------|-X-----------------------|
|---------2---------------|-0-------1---------------|-X-------0---------------|
|---------0---------------|---------2---------------|-0-------0---------------|
 
  |       |       |         |       |       |         |       |       |        
|-3---------------1-3-1---|-0-----------------------|-7-----------0---1-------|
|---------1---------------|-0-----------------------|-5-----------------------|
|---------0---------------|-X-------2---------------|-3-------0---------------|
|---------0---------------|-2-------2---------------|-------------------------|
 
  |       |       |         |       |       |         |       |       |        
|-1-------0---------------|-------------------------|---------5-------8-------|
|-5-------0-------5-------|-3-------0-------5-------|-7-----------------------|
|-6-------0---------------|-2---------------6-------|-5-----------------------|
|---------4---------------|-2-----------------------|-0-----------------------|
 
  |       |       |         |       |       |         |       |       |        
|-7---------------5-------|-4-----------2---4-------|-5-------0---------------|
|-6-------0---------------|-7-----------------------|-0-------3---------------|
|---------1---------------|---------0---------------|-2-----------------------|
|-------------------------|---------1---------------|-2-----------------------|
 
  |       |       |         |       |       |         |       |       |        
|-5-------2---------------|-5-------0---------------|-----------------0-------|
|-0-------0---------------|-0-------3---------------|---------0---2---2-------|
|-2-------0---------------|-2---------------2-------|-----2-----------2-------|
|-2-----------------------|-2-----------------------|-5---------------5-------|
 
  |       |       |        
|-------------------------|
|-------------------------|
|-------------------------|
|-------------------------|
 

Tablature Legend
----------------
/ - slide
B - brush
t - tremolo
X - dead note

Login or Register to remove this ad.