Ads

Town Theme (Legend of Zelda: Adventure of Link) Guitar Tab

Submitted: Nov 17, 2014 by ltm_1988

5
Average: 5 (1 vote)
Download | Listen
Game: Legend of Zelda: Adventure of Link
Composer(s): Akito Nakatsuka
Style: Arrangement, Fingerstyle
Series: Legend of Zelda

AutoScroll: Slow | Medium | Fast
Town Theme
Zelda II: The Aventure Of Link
Akito Nakatsuka
ltm_1988
11/15/2014

    Q       E   E   E   Q.            E   E   E   Q       E   Q
E||---------------------------------|---------------------------------|
B||-----------------3---------------|---------------------------------|
G||-----------------0---5-----------|-----0---2-----------------------|
D||-2~--------------0---5~----------|-3---0---0---5~----------0-------|
A||-3~------------------3-----------|---------0-----------2-----------|
E||---------0---1-------------------|-1---3-------3-------------------|

    Q       E   E   E   E   E   E     E   E   E   Q       E   E   E
E||---------1---0-------------------|---------------------------------|
B||-----------------3---1-----------|-------------0-------1~----------|
G||*--------2---0---------------0---|-----2---------------------------|
D||*----------------3---2-------2---|-----2-------2-------2~----------|
A||-3-------------------3-----------|-3-------------------3-----------|
E||---------3---0-----------3---0---|---------3---0-----------3---0---|

    Q       E   Q       E   E   E     Q       E   Q       E   E   E
E||---------------------1---0-------|---------------------------------|
B||-5~------------------------------|---------------------------------|
G||---------------------2---2---2~--|---------------------------------|
D||-3~------------------0-------3~--|-0-------------------0-----------|
A||-5-------0---------------0-------|---------0---------------0-------|
E||-------------1---------------1---|-------------1---------------1---|

    Q       E   E   E   E   E   E     Q       E   E   E   E   E   E
E||---------------------0-----------|-3-------1-------0---------------|
B||---------1-------3---------------|-0-------0-------0-------3-------|
G||---------2-------2---2~----------|---------------------0---4-------|
D||---------------------3-----------|---------0---------------0-------|
A||---------3---0-----------3---0---|-------------2---------------2---|
E||-1-------------------------------|-3-------------------------------|

    Q       E   Q       E   E   E     E   E   E   Q       E   E   E
E||---------------------1---0-------|-----1---5---7-------5---3~------|
B||-5~----------2---------------3---|-----3---6---8-------6---3~------|
G||---------------------2---2---2---|-------------0-------------------|
D||-5~------------------0---3-------|-0-----------------------0-------|
A||---------2---0---------------0---|---------0-------------------2---|
E||-0-------------------------------|---------------------7-----------|

    Q       E   E   E   E   E   E     E   E   E   Q       E   E   E
E||---------1---0-------------------|---------------------------------|
B||-----------------3---1-----------|-------------0-------1~----------|
G||---------2---0---------------0---|-----2---------------------------|
D||-----------------3---2-------2---|-----2-------2-------2~----------|
A||-3-------------------3-----------|-3-------------------3-----------|
E||---------3---0-----------3---0---|---------3---0-----------3---0---|

    Q       E   Q       E   E   E     Q       E   Q       E   E   E
E||---------------------1---0-------|---------------------------------|
B||-5~------------------------------|---------------------------------|
G||---------------------2---2---2~--|---------------------------------|
D||-3~------------------0-------3~--|-0-------------------0-----------|
A||-5-------0---------------0-------|---------0---------------0-------|
E||-------------1---------------1---|-------------1---------------1---|

    Q       E   E   E   E   E   E     Q       E   E   E   E   E   E
E||---------------------------------|---------3---------------1-------|
B||---------1-----------1-----------|-0---------------3-------3-------|
G||---------1-------1---1-----------|-0---------------4---------------|
D||-----------------3-------3-------|---------0-----------0---3---0---|
A||---------3---0-------3-------3---|-------------2-------------------|
E||-1-------------------------------|-3-------------------------------|

    Q       E   Q       E   E   E     Q       E   Q       E   E   E
E||-0-------------------------------|---------------------------------|
B||---------------------------------|---------------------------------|
G||-0-------0---5~------------------|---------------------------------|
D||---------2---5~------------------|---------------------------------|
A||-3-----------------------3-------|-3-------------------1-------1---|
E||---------3---0-------3-------3---|---------3---0-----------3-------|

    E   E   E   E   E   E   E   E     E   E   E   E   E   E   E   E
E||-------------5---------------5---|-------------7---------------7---|
B||-----------------0---------------|---------------------0-----------|
G||---------5-----------5~----------|-4~------------------------------|
D||-0---0---3-----------0---3-------|-5---0-----------7---0---0---7---|
A||---------------------0---0---0---|---------8---------------8---5---|
E||---------------------------------|---------------------------------|

    E   E   E   Q       E   E   E     E   E   E   E   E   E   E   E
E||---------------------------------|-----------------0---------------|
B||-------------8---------------8---|-----8---7---6-------4---3---1---|
G||-----------------------------0---|---------------------------------|
D||-5~------------------------------|-7~------------------2---2---2---|
A||---------7-----------7---7-------|-0-------------------------------|
E||-0---7---------------7---7---7---|---------------------------------|

    E   E   E   E   E   E   E   E     E   E   E   E   E   E   E   E
E||-------------5---------------5---|-------------7---------------7---|
B||-----------------0---------------|---------------------0-----------|
G||---------5-----------5~----------|-4~------------------------------|
D||-0---0---3-----------0---3-------|-5---0-----------7---0---0---7---|
A||---------------------0---0---0---|---------8---------------8---5---|
E||---------------------------------|---------------------------------|

    E   E   E   Q       E   E   E     E   E   E   E   E   E   E   E
E||---------------------------------|-----------------0---------------|
B||-------------8---------------8---|-----8---7---6-------4---3---1---|
G||-----------------------------0---|---------------------------------|
D||-5~------------------------------|-7~------------------2---2---2---|
A||---------7-----------7---7-------|-0-------------------------------|
E||-0---7---------------7---7---7---|---------------------------------|

    E   E   E   H               E     E   E   E   H               E
E||-1---0---------------------------|---------------------------------|
B||-------------6~------------------|---------------------------------|
G||---------7-----------------------|-0-------------------------------|
D||-0---3---7-----------------------|-2---3---2---5~------------------|
A||-----5---5---5~------------------|-----2-------7~------------------|
E||---------------------------------|-0---0---3---0-------------------|*

    E   E   E   H               E     E   E   E   H               E
E||-5---3---1---5~------------------|---------------------------------|
B||---------------------------------|-------------1~------------------|
G||---------2-----------------------|-1---0---------------------------|
D||-0---3---0-----------------------|-3-------3-----------------------|
A||-----5-------5~------------------|-----3---------------------------|
E||---------------------------------|-1---1---4---1-------------------|

    E   E   E   E   E   E   E   E     E   E   E   E   E   E   E   E
E||---------------------------------|---------------------------------|
B||-----1-------4---3-------1---3---|-------------3---1-----------1---|
G||-3-------------------------------|-1---3-------------------3-------|
D||-----0---3---0---0---3---3---0---|---------0-----------0---0-------|
A||-1-----------1-----------1-------|-----3-------3---3-----------3---|
E||---------------------------------|-4-----------4-----------4-------|

    E   E   E   E   E   E   E   E     E   E   E   E   E   E   E   E
E||---------------------------------|---------------------------------|
B||-----1-------4---3-------1---3---|-------------3---1-----------1---|
G||-3-------------------------------|-1---3-------------------3-------|
D||-----0---3---0---0---3---3---0---|---------0-----------0---0-------|
A||-1-----------1-----------1-------|-----3-------3---3-----------3---|
E||---------------------------------|-4-----------4-----------4-------|

                                       | - - 3 - - |   | - - 3 - - |
    Q       E   Q       Q.             Q     Q     Q   Q     Q     Q  x3 W
E||---------------------------------|------------------3~-------------||-0-
B||---------------------------------|--------0-----3---3~-------------||-1-
G||-3-------1---3-------1~----------|--0-----0-----4-----------------*||-0-
D||-0-------0---0-------0-----------|--0-----------0---------------0-*||-2-
A||---------------------------------|---------------------------------||-3-
E||-1-------1---1-------1-----------|--3-----3-----3---3-----3--------||---

*Alternate end:

    E   E   E   H               E     E   E   E   H               E   
E||-1---0-------1-------------------|---------------------------------|
B||---------3-----------------------|---------------------------------|
G||---------2-----------------------|-0-----------0-------------------|
D||-0---0---0---0-------------------|-2---3---2---2-------------------|
A||---------------------------------|-----2---------------------------|
E||---------------------------------|-0---0---3---0-------------------|

    E   E   E   H               E     E   E   E   H               E   
E||-5---3-------5~------------------|---------------------------------|
B||---------6-----------------------|-------------1~------------------|
G||---------------------------------|-1---0---------------------------|
D||-0---0---0---0-------------------|---------3-----------------------|
A||---------------------------------|---------------------------------|
E||---------------------------------|-1---1---4---1-------------------|

    E   E   E   E   E   E   E   E     E   E   E   E   E   E   E   E   
E||---------------------------------|---------------------------------|
B||-----1-------4---3-------1---3---|-------------3---1-----------1---|
G||-3-------------------------------|-1---3-------------------3-------|
D||-----0---3---0---0---3-------0---|---------0-----------0---0-------|
A||-1-----------------------1-------|-----3-----------3-----------3---|
E||---------------------------------|-------------4-----------4-------|

    E   E   E   E   E   E   E   E     E   E   E   E   E   E   E   E   
E||---------------------------------|---------------------------------|
B||-----1-------4---3-------1---3---|-------------3---1-----------1---|
G||-3-------------------------------|-1---3-------------------3-------|
D||-----0---3---0---0---3-------0---|---------0-----------0---0-------|
A||-1-----------------------1-------|-----3-----------3-----------3---|
E||---------------------------------|-------------4-----------4-------|

                                       | - - 3 - - |   | - - 3 - - |
    Q       E   Q       Q.             Q     Q     Q   Q     Q     Q  x3 W
E||---------------------------------|------------------3~-------------||-0-
B||---------------------------------|--------0-----3---3~-------------||-1-
G||-3-------1---3-------1~----------|--0-----0-----4-----------------*||-0-
D||-0-------0---0-------0-----------|--0-----------0---------------0-*||-2-
A||---------------------------------|---------------------------------||-3-
E||-1-------1---1-------1-----------|--3-----3-----3---3-----3--------||---
Login or Register to remove this ad.