Overworld (Legend of Zelda: Adventure of Link) Guitar Tab

Submitted: Nov 06, 2014 by ltm_1988

5
Average: 5 (2 votes)
Download | Listen
Game: Legend of Zelda: Adventure of Link
Composer(s): Akito Nakatsuka
Style: Arrangement, Fingerstyle
Series: Legend of Zelda

AutoScroll: Slow | Medium | Fast
Overworld
Zelda II: The Aventure Of Link
Akito Nakatsuka
ltm_1988
11/2/2014

             |-3-|           |-3-|             |-3-|           |-3-|
    Q        E E E  E.    S  E E E    E.    S  Q      E.    S  E E E
E||---------------------------------|---------------------------------|
B||---------------------------------|---------------------------------|
G||---------------------------------|---------------------------------|
D||-3---------------------3--3-3-3--|-3-----1--3------------3--3-3-3--|
A||-0---------------------0--0-0-0--|---------------------------------|
E||-1--------1-1-1--1--------1-1-1--|-3--------3---------------3-3-3--|

             |-3-|           |-3-|
    E.    S  E E E  E.    S  E E E    E   S S E   S S E   S S E   E
E||---------------------------------|---------------------------------|
B||---------------------------------|---------------------------------|
G||---------------------------------|---------------------------------|
D||-3-----1--3------------3--3-3-3--|-3-------------------------------|
A||-4--------4-4-4--4--------4-4-4--|-3---3-3-3---3-3-3---3-3-3---3---|
E||-4--------4---------------4-4-4--|-4---------------------------0---|

             |-3-|           |-3-|
    Q        E E E  E   S S  E E E    Q       Q       Q       Q
E||---------------------------------|---------------------------------|
B||------------------------------1--|-4-------3-------1---------------|
G||*2-------------------2-2--2-3-2--|-3-----------------------3-------|
D||*---------0----------------------|---------------------------------|
A||-3----------3-2--3--------2-3----|-1-------1-------1-------1-------|
E||-1--------1-1-1--5--------1------|---------------------------------|

             |-3-|           |-3-|             |-3-|           |-3-|
    E.    S  E E E  Q        E E E    Q        E E E  Q        E E E
E||--------------------------1-1-1--|----------1-1-1-----------1-1-1--|
B||---------------------------------|-1---------------1---------------|
G||-2-----0--2---------------2-2-2--|----------2-2-2-----------2-2-2--|
D||---------------------------------|-3---------------3---------------|
A||-3-------------------------------|---------------------------------|
E||-1--------1-1-1--1---------------|---------------------------------|

             |-3-|           |-3-|
    Q        E E E  E   S S  E E E    Q       Q       Q       Q
E||---------------------------------|---------------------------------|
B||------------------------------1--|-4-------3-------1---------------|
G||-2-------------------2-2--2-3-2--|-3-----------------------3-------|
D||----------0----------------------|---------------------------------|
A||-3----------3-2--3--------2-3----|-1-------1-------1-------1-------|
E||-1--------1-1-1--5--------1------|---------------------------------|

             |-3-|           |-3-|             |-3-|           |-3-|
    E.    S  E E E  Q        E E E    Q        E E E  Q        E E E
E||--------------------------1-1-1--|----------1-1-1-----------1-1-1--|
B||---------------------------------|-1---------------1---------------|
G||-2-----0--2---------------2-2-2--|----------2-2-2-----------2-2-2--|
D||---------------------------------|-3---------------3---------------|
A||-3-------------------------------|---------------------------------|
E||-1--------1-1-1--1---------------|---------------------------------|

             |-3-|                     |-3-|   |-3-|   |-3-|   |-3-|
    Q        E E E  E.    S E.    S    E E E   Q       E E E   Q
E||---------------------------------|--6-------5-------3-------1------|
B||---------------------------------|---------------------------------|
G||-0---------------------0-2-----3-|--------------------------2------|
D||---------------------------------|--5---5---7---------------0------|
A||-1--------3-1-0--1-----0-1-----3-|----8-------------1-0-1----------|
E||-3--------3-3-3--3-------3-------|---------------------------------|

     |-3-|   |-3-|   |-3-|   |-3-|     |-3-|   |-3-|   |-3-|   |-3-|
     Q   E   E E E   E Q     E E E     Q   E   E E E   Q       Q
E||---------------------------------|---------------------------------|
B||--4---4---3-----------------1-3--|--3---3---1----------------------|
G||--0---0-------------3-----3---3--|--2-------0---3---2--------------|
D||----------3-------0---------3----|------------3-------------3------|
A||----------1-0-1-----------1------|----------0-------3--------------|
E||--6-----------------------3------|--1---1-------------------1------|

             |-3-|                     |-3-|   |-3-|   |-3-|   |-3-|
    Q        E E E  E.    S E.    S    E E E   Q       E E E   Q
E||---------------------------------|--6-------5-------3-------1------|
B||---------------------------------|------------------3--------------|
G||-0---------------------0-2-----3-|--7-------5---------------2------|
D||---------------------------------|--5---5---7---------------0------|
A||-1--------3-1-0--1-----0-1-----3-|----8-------------1-0-1----------|
E||-3--------3-3-3--3-------3-------|---------------------------------|

     |-3-|   |-3-|   |-3-|   |-3-|     |-3-|   |-3-|   |-3-|   |-3-|
     E E E   E E E   Q       E E E     E E E   E E E   Q       E E E
E||--0---0--------------------------|---------------------------------|
B||----3-----1----------------------|---------------------------------|
G||--0-----------------------0-0-0--|--0---0--------------------------|
D||----------2-0-2------------------|----3----------------------------|
A||--3-----------------------1------|--3-------3-1-3-----------3-3-3--|
E||------------------3--------------|--3---------------3-------3-3-3--|

             |-3-|                             |-3-|
    Q        E E E  Q       Q         E.    S  E E E  Q       Q
E||---------------------------------|---------------------------------|
B||---------------------------------|---------------------------------|
G||-------------------------3-------|-3-----3--2----------------------|
D||-3-----------------------0-------|-0-----0-------------------------|
A||-0-------------------------------|----------3----------------------|
E||-1--------1-1-1--1-------1-------|-1--------1-1-1--1-------1-------|

             |-3-|                             |-3-|
    Q        E E E  Q       Q         E.    S  E E E  Q       Q
E||---------------------------------|---------------------------------|
B||---------------------------------|---------------------------------|
G||-------------------------3-------|-3-----3--2----------------------|
D||-3-----------------------0-------|-0-----0-------------------------|
A||-0-------------------------------|----------3----------------------|
E||-1--------1-1-1--1-------1-------|-1--------1-1-1--1-------1-------|

     |-3-|   |-3-|   |-3-|   |-3-|     |-3-|   |-3-|   |-3-|   |-3-|
     E E E   E E E   E E E   E E E     E E E   E E E   E E E   E E E
E||----------1---------------1------|--3-5-3---1-3-1---0-1-0-----0----|
B||------------1---------------1----|--0-----------------------3---3--|
G||--0-2-3-------2---0-2-3-------2--|------------------0--------------|
D||----------3---------------0------|--------------------------0------|
A||----0-1-----3-0-----0-------3-0--|---------------------------------|
E||--3---------------3---3----------|--3-------------------3----------|*

     |-3-|   |-3-|   |-3-|   |-3-|     |-3-|   |-3-|   |-3-|   |-3-|
     E E E   E E E   E E E   E E E     Q   E   Q   E   Q   E   Q   E  x3 W
E||----------1---------------1------|--0---1-------0------------------||-1-
B||------------1---------------1----|----------3-------1---3-------1--||-1-
G||--0-2-3-------2---0-2-3-------2--|------------------0-------3-----*||-2-
D||----------3---------------0------|--------------------------2-----*||-3-
A||----0-1-----3-0-----0-------3-0--|--3---3-------------------1------||-3-
E||--3---------------3---3----------|----------0---0---3---3-------3--||-1-

*Alternate end:
     |-3-|   |-3-|   |-3-|   |-3-|     |-3-|   |-3-|   |-3-|   |-3-|
     E E E   E E E   E E E   E E E     E E E   E E E   E E E   E E E
E||----------1---------------1------|--3-5-3---1-3-1---0-1-0-----0----|
B||------------1---------------1----|--0-----------------------3---3--|
G||--0-2-3-------2---0-2-3-------2--|------------------0--------------|
D||----------3---------------0------|--------------------------0------|
A||---------------------------------|---------------------------------|
E||--3---------------3--------------|--3-------------------3----------|*

     |-3-|   |-3-|   |-3-|   |-3-|     |-3-|   |-3-|   |-3-|   |-3-|
     E E E   E E E   E E E   E E E     Q   E   Q   E   Q   E   Q   E  x3 W
E||----------1---------------1------|--0---1-------0------------------||-1-
B||------------1---------------1----|----------3-------1---3-------1--||-1-
G||--0-2-3-------2---0-2-3-------2--|------------------0-------3-----*||-2-
D||----------3---------------0------|--------------------------2-----*||-3-
A||---------------------------------|--3---3-------------------1------||-3-
E||--3---------------3--------------|----------0---0---3---3-------3--||-1-
Login or Register to remove this ad.