Ads

Great Palace (Legend of Zelda: Adventure of Link) Guitar Tab

Submitted: Nov 13, 2014 by ltm_1988

5
Average: 5 (3 votes)
Download | Listen
Game: Legend of Zelda: Adventure of Link
Composer(s): Akito Nakatsuka
Style: Arrangement, Fingerstyle
Series: Legend of Zelda

AutoScroll: Slow | Medium | Fast
Great Palace
Zelda II: The Adventure Of Link
Akito Nakatsuka
ltm_1988
11/13/2014

    Q       E   Q       Q       E     E   E   E   Q       E   Q
E||---------------------------------|---------------------------------|
B||---------------------------------|---------0---0-------------------|
G||-2-------0---2---------------2---|-0---2---------------2---0-------|
D||-2-------0---2-------2-------0---|-------------0-------0---0-------|
A||-0-----------0-------2-----------|-3---3---3-----------------------|
E||---------3-----------0-------3---|-1---1---1---3-------3---3-------|

    E   E   E   E   E   E   E   E     E   E   E   E   E   E   E   E
E||-----------------------------0---|-7-----------5-----------0-------|
B||-----------------0---1---3-------|---------------------------------|
G||*--------2---2---------------1---|-------------0-------------------|
D||*--------2---------------2-------|-------------------------2---4---|
A||-0---3-------0---0---3-----------|-0-------7---0---0---3-----------|
E||---------0-------------------0---|-----8---0-------------------0---|

    E   E   E   E   E   E   E   E     E   E   E   E   E   E   E   E
E||-3-----------2-------------------|-1-----------0-------------------|
B||-------------------------3-------|-------------------------1-------|
G||-------------2---------------1---|-------------0-------------------|
D||---------2---------------2-------|---------2---------------2---4---|
A||-0---3-------0---0---3-----------|-0---3-------0---0---3-----------|
E||---------0-------------------0---|---------0-------------------0---|

    E   E   E   E   E   E   E   E     E   E   E   E   E   E   E   E
E||-----------------------------0---|-7-----------5-----------0-------|
B||-----------------0---1---3-------|---------------------------------|
G||---------2---2---------------1---|-------------0-------------------|
D||---------2---------------2-------|-------------------------2---4---|
A||-0---3-------0---0---3-----------|-0-------7---0---0---3-----------|
E||---------0-------------------0---|-----8---0-------------------0---|

    E   E   E   E   E   E   E   E     E   E   E   E   E   E   E   E
E||-3-----------2-------------------|-1-----------0-------------------|
B||-------------------------3-------|-------------------------1-------|
G||-------------2---------------1---|-------------0-------------------|
D||---------2---------------2-------|---------2---------------2---4---|
A||-0---3-------0---0---3-----------|-0---3-------0---0---3-------3---|
E||---------0-------------------0---|---------0-----------------------|

    E   E   E   E   E   E   E   E     E   E   E   E   E   E   E   E
E||-----------------------------1---|---------------------1-----------|
B||-----------------1---3-----------|-------------4-------------------|
G||---------1-----------------------|---------------------------------|
D||-3-------0---3-----------0---3---|-3-------0---3-----------0---3---|
A||-----3---3-----------3-------3---|-----3---3-----------3-------3---|
E||-4---------------4---------------|-4---------------4---------------|

    E   E   E   E   E   E   E   E     E   E   E   E   E   E   E   E
E||-3---1-------1-------------------|---------------------------------|
B||---------4-----------4---3-------|-4---3---1---3-------1-----------|
G||---------------------------------|-------------------------3-------|
D||-3-------0---3-----------0---3---|-3-------0---3-----------0---3---|
A||-----3---3-----------3-------3---|-----3---3-----------3-------3---|
E||-4---------------4---------------|-4---------------4---------------|

    E   E   E   E   E   E   E   E     E   E   E   E   E   E   E   E
E||-----------------------------1---|---------------------1-----------|
B||-----------------1---3-----------|-------------4-------------------|
G||---------1-----------------------|---------------------------------|
D||-3-------0---3-----------0---3---|-3-------0---3-----------0---3---|
A||-----3---3-----------3-------3---|-----3---3-----------3-------3---|
E||-4---------------4---------------|-4---------------4---------------|

    E   E   E   E   E   E   E   E     E   E   E   E   E   E   E   E
E||-3---1-------1-------------------|---------------------------------|
B||---------4-----------4---3-------|-4---3---1---3-------1-----------|
G||---------------------------------|-------------------------3-------|
D||-3-------0---3-----------0---3---|-3-------0---3-----------0---3---|
A||-----3---3-----------3-------3---|-----3---3-----------3-----------|
E||-4---------------4---------------|-4---------------4-----------0---|

    E   E   E   E   E   E   E   E     E   E   E   E   E   E   E   E
E||-------------0-------------------|-------------3-------2-----------|
B||-1-------------------------------|-1-------------------------------|
G||-----2-------2---------------1---|-----2-------0-------------------|
D||---------2---------------2-------|---------2---------------2---4---|
A||-0---3-------0---0---3-----------|-0---3-------0---0---3-----------|
E||---------0-------------------0---|---------0-------------------0---|

    E   E   E   E   E   E   E   E     E   Q       Q       Q.          x3 W
E||-------------0-------------------|---------------------------------||-0-
B||-1-------------------------------|---------------------0-----------||-1-
G||-----2-------2---------------1---|-------------1------------------*||-2-
D||---------2---------------2-------|-2---3-------0------------------*||-2-
A||-0---3-------0---0---3-----------|-2---3---------------2-----------||-0-
E||---------0-------------------0---|-0---1-------4-------------------||---
Login or Register to remove this ad.