Ads

Battle Theme (Legend of Zelda: Adventure of Link) Guitar Tab

Submitted: Nov 09, 2014 by ltm_1988

5
Average: 5 (1 vote)
Download | Listen
Game: Legend of Zelda: Adventure of Link
Composer(s): Akito Nakatsuka
Style: Arrangement, Fingerstyle
Series: Legend of Zelda

AutoScroll: Slow | Medium | Fast
Battle Theme
Zelda II: The Aventure Of Link
Akito Nakatsuka
ltm_1988
11/6/2014


    E   S E   S S S S S S S S S S S   E   S E   S S S S S S S S S S S
E||---------------------------------|-------1-----0-------------------|
B||-------3-----1-------------------|-------------------1-----3~------|
G||-0-----0-----0-----3-----2-------|-0-----0-----0-----0-------------|
D||-0---0-----0---0---5-----0-0-3-0-|-0---0-----0---0-----0---5~------|
A||---------------------5-----------|---------------------------5---5-|
E||-3-----3-----3---3-----3-----3---|-3-----3-----3---3-----3-----3---|

    E   S S E   S E   S S S E   S S   S S S S S S S S S S S S S S S S
E||---------------------------------|---------------------------------|
B||-------1-------------------------|-------4-----3---1---------------|
G||-------------3-----2~--------0---|---------2-----2---2---3-----2---|
D||-3-----3-----3-----3~------------|-3-----------------------3-----3-|
A||-3---3-------3-----3---3-----3-3-|---3-3-----3---3-----3-----3---3-|
E||-1-----1-1-----1-----1---1-----1-|-1-----1-----1---1-----1-----1---|

    E   S E.    E   E   S E.    E     E   S E.    E   E   S E.    E
E||---------------------------------|---------------------------------|
B||---------------------------------|-----------------1-----3-----4---|
G||-----------------0-----2-----3---|-------------3---1-----1-----5---|
D||-1~----------3---1-----1-----5---|-6~----------1-------------------|
A||-1~--0-1-------------0-1---------|-6~--3-6-------------3-----------|
E||---------------------------------|-4---------------4-----------4---|

    E   S E.    E   E   S E   S E     E   S E.    E   E   S E   S E
E||---------------------------------|---------------------------------|
B||-3-------------------1-----4-----|-3-------------------6~----6~----|
G||-2-----2~------------2-----5-----|-2-----2~------------9~----9~----|
D||-0-----4~--------0---------------|-0-----4~--------0---------------|
A||-------0-----3---------0-----3---|-------0-----3---------0---------|
E||-----2---------------2-----------|-----2-----------------------8---|

    E   S E.    E   E   S E.    E     E   S E.    E   E   S E.    E
E||---------------------------------|---------------------------------|
B||---------------------------------|-----------------1-----3-----4---|
G||-----------------0-----2-----3---|-2~----------3---2-----3-----5---|
D||-------------3---1-----1-----5---|-3~----------5---------------3---|
A||-6-------------------0-1---------|-----2-3-------------2-3---------|
E||-6---5-6-------------------------|-1---------------1---------------|

    E   S E   S S S E   S E   S S S   S E   E   E   S E   E   S E.    x3 W
E||---------------------------------|---------------------------------||-3-
B||-3-----3-----3---3-----3-----3---|-6-6---6---6---6-3~--------------||-3-
G||-----5-----5---5-----5-----5---5-|-5-5---5---5---5-----------2-----||-3-
D||-4---4-4---4---4-4---4-4---4---4-|-0-0---0---0---0-4~------4-------||-5-
A||-5-----0-----3---5-----0-----3---|-----------------5---5-----------||-5-
E||---------------------------------|---------------------------------||-3-
Login or Register to remove this ad.