Ads

Battle Theme (Legend of Zelda: Adventure of Link) Guitar Tab

Submitted: Apr 28, 2011 by BacardiBreezer (Last updated: May 01, 2011)

5
Average: 5 (1 vote)
Download | Listen
Game: Legend of Zelda: Adventure of Link
Composer(s): Akito Nakatsuka
Style: Alternate picking, Transcription
Series: Legend of Zelda

AutoScroll: Slow | Medium | Fast
Battle
Zelda II: The Adventure of Link
Composer: Akito Nakatsuka
Tabbed by Bacardibreezer
4/28/11

e|---------------------|-------------------|---------------------------------------|
B|-----15--------------|-----18-17----15~--|----------------------16-15------------|
G|--------17-15-14-----|-----------17------|-----17-15-14---------------17-15-14---|
D|--17-------------15--|--17---------------|--15------------17-15------------------|
A|---------------------|-------------------|---------------------------------------|
E|---------------------|-------------------|---------------------------------------|

e|-------------------------|----------------------|------------------13-13--|
B|-------------------------|--------15-16-15------|-----16-15--------18-18--|
G|--------------14-15-13~--|--15-17----------14~--|--17-------14~-----------|
D|--13~---15-17------------|----------------------|-------------------------|
A|-------------------------|----------------------|-------------------------|
E|-------------------------|----------------------|-------------------------|

e|-------------------------|---------------|------------------------------------------|-----------------------|
B|-------------------------|--------15-16--|--15--13-15--13-15-13-15--13-15--13-15-13-|--18-18-18-18-18-15~---|
G|--------------14-15-14~--|--15-17--------|------------------------------------------|-----------------------|
D|--13~---15-17------------|---------------|------------------------------------------|-----------------------|
A|-------------------------|---------------|------------------------------------------|-----------------------|
E|-------------------------|---------------|------------------------------------------|-----------------------|
Login or Register to remove this ad.

1 comment on Battle Theme

Really great man ^^ loved it!

5

Really great man ^^ loved it!