Title Screen (Legend of Zelda) Guitar Tab

Submitted: Aug 11, 2009 by auriplane

5
Average: 5 (5 votes)
Download | Listen
Game: Legend of Zelda
Composer(s): Koji Kondo
Style: 2 or more instruments, Transcription
Series: Legend of Zelda

AutoScroll: Slow | Medium | Fast
                      Legend of Zelda - Title Screen GUITAR TAB
                                  Song by Koji Kondo
      
                       Tabbed by auriplane ([email protected])
      

This tab contains the melody and harmony.  The third voice, a triangle wave,
I have transcribed in a separate bass tab.

Both guitars are in standard tuning.



                                  1ST GUITAR - MELODY


       H         E   E   E   E     S S Q.     H            H         E  E  E   E   
e||-----------------------------|----------------------|--------------------------|
B||---11---------L----------11--|--9-7-9------L--------|--11---------L--7--7--11--|
G||*----------------10--10------|----------------------|--------------------------|
D||*----------------------------|----------------------|--------------------------|
A||-----------------------------|----------------------|--------------------------|
E||-----------------------------|----------------------|--------------------------|


   S S  Q.      H           Q    H.              Q    H.            
-------------------------|--------------------|--------------------|
--10-8-10-------L--------|--------------------|--------------------|
-------------------------|--------------------|--------------------|
-------------------------|--------------------|--------------------|
-------------------------|--4-----------------|--4-----------------|
-------------------------|--------------------|--------------------|


   Q     Q     E   E   S  S  S  S     W                    Q     Q     E   E   S  S  S  S  
-------------------------------11-|--13----------------|-------------------------------11-|
--11--------------11--11-13-15----|--------------------|--11--------------11--11-13-15----|
--------10-----L------------------|--------------------|--------10-----L------------------|
----------------------------------|--------------------|----------------------------------|
----------------------------------|--------------------|----------------------------------|
----------------------------------|--------------------|----------------------------------|


                                                                             |---3---|   
   W                    Q     Q     E   E   S  S  S  S     H         E   E   E   E   E   
--13----------------|-------------------------------11-|--13---------L--13--13--14--16--|
--------------------|--11--------------11--11-13-15----|--------------------------------|
--------------------|--------10-----L------------------|--------------------------------|
--------------------|----------------------------------|--------------------------------|
--------------------|----------------------------------|--------------------------------|
--------------------|----------------------------------|--------------------------------|


             |--3--|   |---3---|      |--3--|                                                  
   H         Q     E   E   E   E      Q     E   H.               E   S  S  Q     Q     E   E   
--18---------L----18--18--16--14--|--16----14--13------------|---------13-14-----L----13------|
----------------------------------|--------------------------|--16--16--------------------16--|
----------------------------------|--------------------------|--------------------------------|
----------------------------------|--------------------------|--------------------------------|
----------------------------------|--------------------------|--------------------------------|
----------------------------------|--------------------------|--------------------------------|


   E   S  S  Q     Q     E   E      E   S  S  Q     Q     Q     
------------13-----L------------|------------------------15----|
--14--14-16-------------16--14--|--13--13-15-17-----L----------|
--------------------------------|------------------------------|
--------------------------------|------------------------------|
--------------------------------|------------------------------|
--------------------------------|------------------------------|


   E   S  S  E   S  S  E   S  S  E   E      Q     Q     E   E   S  S  S  S  
--13------------------------------------|-------------------------------11-|
----------------------------------------|--11--------------11--11-13-15----|
------10-10-10--10-10-10--10-10-10--10--|--------10-----L------------------|
----------------------------------------|----------------------------------|
----------------------------------------|----------------------------------|
----------------------------------------|----------------------------------|


                     |---3---|                                                     
   H         E   E   E   E   E      H.            Q        Q     Q     Q     Q     
--13---------L--13--13--14--16--|--18------------21----|--20----17-----L----------|
--------------------------------|----------------------|--------------------18----|
--------------------------------|----------------------|--------------------------|
--------------------------------|----------------------|--------------------------|
--------------------------------|----------------------|--------------------------|
--------------------------------|----------------------|--------------------------|


   H.            Q        Q     Q     Q     Q        H.            Q        Q     Q     Q     Q     
----------------18----|--17----------------------|----------------18----|--17----------------------|
--19------------------|--------18-----L----18----|--19------------------|--------18-----L----15----|
----------------------|--------------------------|----------------------|--------------------------|
----------------------|--------------------------|----------------------|--------------------------|
----------------------|--------------------------|----------------------|--------------------------|
----------------------|--------------------------|----------------------|--------------------------|


   H.            Q        Q     Q     Q     Q        E   S  S  Q     Q     Q     
----------------14----|--13----------------------|------------------------15----|
--16------------------|--------14-----L----------|--13--13-15-17-----L----------|
----------------------|--------------------15----|------------------------------|
----------------------|--------------------------|------------------------------|
----------------------|--------------------------|------------------------------|
----------------------|--------------------------|------------------------------|


   E   S  S  E   S  S  E   S  S  E   E     
--13-------------------------------------||
-----------------------------------------||
------10-10-10--10-10-10--10-10-10--10--*||
----------------------------------------*||
-----------------------------------------||
-----------------------------------------||







                                  2ND GUITAR - HARMONY


      H        E  E  E  E     S S Q.     H           H        E  E  E  E     S S Q.     H         
e||---6--------L--------6--|--4-2-4------L--------|--6--------L--2--2--6--|--5-3-5------L--------|
B||---------------6--6-----|----------------------|-----------------------|----------------------|
G||*-----------------------|----------------------|-----------------------|----------------------|
D||*-----------------------|----------------------|-----------------------|----------------------|
A||------------------------|----------------------|-----------------------|----------------------|
E||------------------------|----------------------|-----------------------|----------------------|


  E  S S E  S S E  S S S S S S    E  S S E  S S E  S S S S S S    E  S S E  S S E  S S S S S S  
-------------------------------|-------------------------------|-------------------------------|
-------------------------------|-------------------------------|-------------------------------|
-------------------------------|-------------------------------|-------------------------------|
--3--3---3--3---3--3---3---3---|--3--3---3--3---3--3---3---3---|--3--3---3--3---3--3---3---3---|
-------1------1------1---1---1-|-------1------1------1---1---1-|-------1------1------1---1---1-|
-------------------------------|-------------------------------|-------------------------------|


  E  E  S S S S E  S S S S S S    E  S S E  S S E  S S S S S S    E  E  S S S S E  S S S S S S  
----------------1--------------|-------------------------------|----------------1--------------|
----------1-3-4----------------|-------------------------------|----------1-3-4----------------|
-----3--3----------------------|-------------------------------|-----3--3----------------------|
--1----------------------------|-------------------------------|-------------------------------|
-------------------6---6---6---|--4--4---4--4---4--4---4---4---|--3----------------3---3---3---|
---------------------4---4---4-|-------2------2------2---2---2-|---------------------1---1---1-|


         |---3---|                                                    |---3---|   
   Q     E   E   E   E.   S  S  S  S  S     E.   S  S  S  S  S  Q     E   E   E   
----------------------------------------|-------------------11-13----------------|
----------------------------------------|-------11-11-13-15--------------11--13--|
----------------------------------10-12-|--13------------------------13----------|
--12----12--12--10--12---12-12-13-------|----------------------------------------|
----------------------------------------|----------------------------------------|
----------------------------------------|----------------------------------------|


                       |--3--|   |---3---|      |--3--|   |---3---|   |--3--|   |---3---|   
   E.   S  S  S  S  S  Q     E   E   E   E      Q     E   E   E   E   Q     E   E   E   E   
--------------------------------------------|----------------------------------------------|
----------------11-13-14----14--14--13--11--|--14----11------------------------------------|
--11---11-11-13-----------------------------|------------13--13--11--13----13--13--11--13--|
--------------------------------------------|----------------------------------------------|
--------------------------------------------|----------------------------------------------|
--------------------------------------------|----------------------------------------------|


   E   S  S  E   S  S  Q     E   E      E   S  S  E   S  S  Q     E   E   
------------------------------------|------------------------------------|
----------------------11------------|------------------------------------|
--11--11-10-11--11-13-------13--11--|--10--10----10--10-11-13----11--10--|
------------------------------------|---------13-------------------------|
------------------------------------|------------------------------------|
------------------------------------|------------------------------------|


  Q    E  S  S  E   S  S  E   E      E   S  S  E   S  S  E   S  S E  E   
---------------------------------|--------------------------------------|
----------------------10-11--13--|--------------------------------------|
--9----9--9-10-12--12------------|--------------------------------------|
---------------------------------|--------------------------------------|
---------------------------------|--12--12-12-11--11-11-10--10-10-9--9--|
---------------------------------|--------------------------------------|


         |---3---|                                                    |---3---|   
   Q     E   E   E   E.   S  S  S  S  S     E.   S  S  S  S  S  Q     E   E   E   
----------------------------------------|-------------------11-13----------------|
----------------------------------------|-------11-11-13-15--------------11--13--|
----------------------------------10-12-|--13------------------------13----------|
--12----12--12--10--12---12-12-13-------|----------------------------------------|
----------------------------------------|----------------------------------------|
----------------------------------------|----------------------------------------|


                                                    |--3--|  |--3--|            
   H.            Q        Q     Q     Q     Q       E  E  E  E  E  E  H         
----------------12----|--11----------------------|-----------------------------|
--14------------------|--------13-----L----10----|-----------------------------|
----------------------|--------------------------|-----------------6--9--------|
----------------------|--------------------------|--------------8--------------|
----------------------|--------------------------|--------4--7-----------------|
----------------------|--------------------------|--0--6-----------------------|


        |--3--|              |--3--|  |--3--|                    |--3--|            
   Q    E  E  E  H           E  E  E  E  E  E  H            Q    E  E  E  H         
--------------------------|-----------------------------|--------------------------|
--------------------------|-----------------------------|--------------------------|
--10----------------------|-----------------6--9--------|--10----------------------|
--------------------------|--------------8--------------|--------------------------|
--------8--8--8--8--------|--------4--7-----------------|--------8--8--8--8--------|
--------------------------|--0--6-----------------------|--------------------------|


   H.            Q        Q     Q     Q     Q       Q    E  S  S  E   S  S  E   E   
----------------------|--------------------------|---------------------------------|
----------------12----|--11----------------------|----------------------10-11--13--|
--11------------------|--------10-----L----------|--9----9--9-10-12--12------------|
----------------------|--------------------11----|---------------------------------|
----------------------|--------------------------|---------------------------------|
----------------------|--------------------------|---------------------------------|


   E   S  S  E   S  S  E   S  S E  E     
---------------------------------------||
---------------------------------------||
--------------------------------------*||
--------------------------------------*||
--12--12-12-11--11-11-10--10-10-9--9---||
---------------------------------------||




Duration Legend
---------------
W - whole
H - half
Q - quarter
E - 8th
S - 16th
. - note dotted
|-n-|  - n-tuplets


Tablature Legend
----------------
L - tied note

Login or Register to remove this ad.

2 comments on Title Screen

You already know, but I'd

5

You already know, but I'd like to say again that this is really cool! Makes me wish I had an electric D:

Now make me a recording and perhaps I'll grace you with another gator. XD

nice tune mate

5

nice tune mate