Ads

Link is Coming (Legend of Zelda: Twilight Princess) Guitar Tab

Submitted: Jun 29, 2010 by Daugreano (Last updated: Feb 14, 2011)

5
Average: 5 (1 vote)
Download | Listen
Game: Legend of Zelda: Twilight Princess
Composer(s): Koji Kondo, Asuka Ohta, Toru Minegishi
Style: Fingerstyle, Transcription
Series: Legend of Zelda

AutoScroll: Slow | Medium | Fast
Song: Link Is Coming
Game: Legend Of Zelda: Twilight Princess
Composer(s): Koji Kondo, Ahsuka Ohta, Toru Minegishi
Tabbed by: Daugreano

Play the first six measures, then play the next two measures three times...
after that repeat the whole thing...

Guitar:
                                                            
   E   E   Q    Q    Q      E   E   H.       E   E   H.       E   E   H.
E|---------3----2---------|----------------|----------------|----------------|
B|-0-----------------3----|-2--------------|----------------|----------------|
G|---------0--------------|----------------|---------0------|----------------|
D|-----2------------------|---------5------|-----2----------|---------5------|
A|-2----------------------|-2---4----------|-2--------------|-2---4----------|
E|------------------------|----------------|----------------|----------------|



   E   E   Q    Q    Q      E   E   E   E   H       E   E   H.       E   E   H.
E|---------3----2---------|-0---------------5-----|----------------|----------------|
B|-0-----------------3----|-----------------------|----------------|----------------|
G|---------0--------------|-----------------------|---------0------|----------------|
D|-----2------------------|---------5-------------|-----2----------|---------5------|
A|-2----------------------|-2---4-----------------|-2--------------|-2---4----------|
E|------------------------|-----------------------|----------------|----------------|

Login or Register to remove this ad.