Sadness (Legend of Zelda: Oracle of Ages) Guitar Tab

Submitted: Aug 27, 2009 by Jacob31593 (Last updated: Aug 30, 2009)

5
Average: 5 (2 votes)
Download | Listen
Game: Legend of Zelda: Oracle of Ages
Composer(s): M-Adachi, Kyopi
Style: 2 or more instruments, Transcription
Series: Legend of Zelda

AutoScroll: Slow | Medium | Fast
Sadness from The Legend of Zelda: Oracle of Ages/Seasons
Composed by Kyopi and M-Adachi 
Tabbed by Jacob31593
Aug. 27th 2009

Anyone who wants to use this tab to make a solo guitar version is welcome to
Standard tuning
102 BPM

Guitar 1

      Q     Q     Q     Q        Q     E  E   Q.     E     Q     Q     Q     Q     
E||--------------------------|--------------------------|-------------------13----|
B||--------------13----------|--------11-----11---------|-------------13----------|
G||*-------10----------10----|--------------------------|-------10----------------|
D||*-------------------------|--13----------------------|-------------------------|
A||--------------------------|--------------------------|-------------------------|
E||--------------------------|--------------------------|-------------------------|


   Q     Q     Q     Q        H        Q     E  E      Q     Q    E  E   E  E   
--11----------------11----|--11--------9----11--9--|---------------------------|
--------------------------|------------------------|--13----11----9-----13-----|
--------12----13----------|------------------------|---------------------------|
--------------------------|------------------------|---------------------------|
--------------------------|------------------------|---------------------------|
--------------------------|------------------------|---------------------------|


   Q     E.  S  Q     Q        H.           Q       Q     Q     Q    Q        Q     E  E   H         
---------------15----13----|--12-----------------|-------13---------------|--------11-----11--------|
--13----11-----------------|---------------------|-------------13----9----|--11---------------------|
---------------------------|---------------------|------------------------|-------------------------|
---------------------------|---------------------|------------------------|-------------------------|
---------------------------|---------------------|------------------------|-------------------------|
---------------------------|---------------------|------------------------|-------------------------|


  Q     E   E   E   E   E   E      Q     E  E   S Q    E.      H         H         
-------18--16--15--------------|--------13-----13----------|--11------------------|
-------------------18--16--14--|--13-----------------------|------------14--------|
-------------------------------|---------------------------|----------------------|
-------------------------------|---------------------------|----------------------|
-------------------------------|---------------------------|----------------------|
-------------------------------|---------------------------|----------------------|


  H        E   E   E   E      H         H                Repeat         
------------------11------|----------------------|--------||
--------------14------14--|--13--------11--------|--------||
--------------------------|----------------------|-------*||
--------------------------|----------------------|-------*||
--------------------------|----------------------|--------||
--------------------------|----------------------|--------||




Duration Legend
---------------
W - whole
H - half
Q - quarter
E - 8th
S - 16th



Guitar 2

      Q    Q    Q    Q       Q    Q    Q    Q       E  E  Q    Q    Q       Q    Q    Q    Q     
E||-----------------------|----------------------|-----------------------|----------------------|
B||-----------------------|----------------------|-----------------------|----------------------|
G||*----------------------|------------3---------|-----------------------|----------------------|
D||*------------6---------|-------5--------------|-------------6---------|-------5----3---------|
A||--------4---------4----|--3--------------3----|--L-----4---------4----|--3-------------------|
E||---6-------------------|----------------------|-----------------------|----------------------|


  E  E  E  E  Q    Q       Q    Q    Q    Q       W                   E  E  E  E  Q    E  E   
------------------------|----------------------|-------------------|-------------------------|
------------------------|----------------------|-------------------|-------------------------|
------------------------|----------------------|-------------------|-------------------5-----|
-----------6--5---------|--6----5----3---------|-------------------|-------------------------|
-----3--4----------6----|-----------------6----|--4----------------|--3--4--3--4--3----------|
--6---------------------|----------------------|-------------------|-------------------------|


  Q    Q    Q    Q       Q    Q    Q    Q       Q    Q    Q    Q       Q    Q    Q    E  E   
----------------------|----------------------|----------------------|-----------------------|
----------------------|----------------------|----------------------|-----------------6-----|
------------5---------|------------3---------|------------5---------|-------3---------------|
-------6--------------|-------5--------------|-------6--------------|------------6----------|
--4--------------4----|--3--------------3----|--4--------------4----|--3--------------------|
----------------------|----------------------|----------------------|-----------------------|


  Q    Q    Q    Q       Q    Q    Q    Q       Q    Q    Q    Q       Q    Q    Q    Q     Repeat         
----------------------|----------------------|----------------------|-----------------------||
----------------------|----------------------|----------------------|-----------------4-----||
----------------------|-----------------3----|----------------------|--3----5----6---------*||
----------------------|--3----5----6---------|-------3----5----6----|----------------------*||
-------3----4----6----|----------------------|--6-------------------|-----------------------||
--6-------------------|----------------------|----------------------|-----------------------||




Duration Legend
---------------
W - whole
H - half
Q - quarter
E - 8th
S - 16th
Login or Register to remove this ad.

5 comments on Sadness

OMG

5

kick ass!!!
ill listen to it when i get head phones.... to see if i played it rightttt
:)

Good tab, I'd change the 2nd

Good tab, I'd change the 2nd guitar so that it stays in frets 3-6, just to make it easier.

ya i didnt really notice that

ya i didnt really notice that as i was making it :$
thanks

Okay at the top it said feel

5

Okay at the top it said feel free to make a solo version out of it so I did http://auriplane.net/Ages-Seasons-sadness-solo.gp5

It's in a different key though, because you'd have to put a capo on 8 to keep it in the original key, which is kind of ridiculous. (But if you do, it'll be in the original key :-)

nice! ^^

nice! ^^