Ads

Zelda's Lullaby (SongeLeReveur Version) (Legend of Zelda: Ocarina of Time) Guitar Tab

Submitted: Jul 27, 2010 by ForestMarth

5
Average: 5 (4 votes)
Download | Listen
Game: Legend of Zelda: Ocarina of Time
Composer(s): Koji Kondo
Style: 2 or more instruments, Arrangement, Transcription
Series: Legend of Zelda

AutoScroll: Slow | Medium | Fast
                 The Legend of Zelda: Ocarina of Time - Zelda's Lullaby

Composed by : Koji Kondo

Arranged by : SongeLeReveur

Tabbed by : ForestMarth

Platform : Nintendo 64


I dedicate this tab to SongeLeReveur.
Thank you so much for all your incredible arrangements :-)


ATTENTION !!! The guitar has a capo at the third fret.
Therefore for instance a "3" with capo (like here) means a "6" without capo.
Another example : a "0" with capo means a "3" without capo.

 


Guitar (Capo 3)



     D#7M                D#sus2add13/5-                D#7M              
     E    E  H           E              E  H           E    E  H         
E||----------0--------|--------------------2--------|----------0--------|
B||-------------------|-----------------------------|-------------------|
G||-------0-----------|-----------------2-----------|-------0-----------|
D||-------------------|-----------------------------|-------------------|
A||--3----------------|--3--------------------------|--3----------------|
E||-------------------|-----------------------------|-------------------|


  D#sus2add13/5-                D#7M                D#sus2add13/5-              
  E              E  H           E    E  H           E              E  H         
--------------------2--------|----------0--------|--------------------2--------|
-----------------------------|-------------------|-----------------------------|
-----------------2-----------|-------0-----------|-----------------2-----------|
-----------------------------|-------------------|-----------------------------|
--3--------------------------|--3----------------|--3--------------------------|
-----------------------------|-------------------|-----------------------------|


  D#7M                D#sus2add13/5-                Dm7              
  E    E  H           E              E  H           E   E  H         
----------0--------|--------------------2--------|---------5--------|
-------------------|-----------------------------|------3-----------|
-------0-----------|-----------------2-----------|------------------|
-------------------|-----------------------------|------------------|
--3----------------|--3--------------------------|--2---------------|
-------------------|-----------------------------|------------------|


  C#m6                Cm7                F7                D#7M              
  E    E  H           E   E  H           E  E  H           E    E  H         
----------3--------|---------3--------|--------2--------|----------0--------|
-------2-----------|------1-----------|-----1-----------|-------------------|
-------------------|------------------|-----------------|-------0-----------|
-------------------|------------------|--0--------------|-------------------|
--1----------------|--0---------------|-----------------|--3----------------|
-------------------|------------------|-----------------|-------------------|


  D#sus2add13/5-                D#7M                D#sus2add13/5-              
  E              E  H           E    E  H           E              E  H         
--------------------2--------|----------0--------|--------------------2--------|
-----------------------------|-------------------|-----------------------------|
-----------------2-----------|-------0-----------|-----------------2-----------|
-----------------------------|-------------------|-----------------------------|
--3--------------------------|--3----------------|--3--------------------------|
-----------------------------|-------------------|-----------------------------|


  Dm7                C#m6                Cm7                F7              
  E   E  H           E    E  H           E   E  H           E  E  H         
---------5--------|----------3--------|---------3--------|--------2--------|
------3-----------|-------2-----------|------1-----------|-----1-----------|
------------------|-------------------|------------------|-----------------|
------------------|-------------------|------------------|--0--------------|
--2---------------|--1----------------|--0---------------|-----------------|
------------------|-------------------|------------------|-----------------|


  G#7M                   Gm7                   Fm7                 
  E    E  E  E  E  E     E   E  E  E  E  E     E   E  E  E  E  E   
-------------5--------|------------3--------|------------1--------|
----------5-----5-----|---------3-----3-----|---------1-----1-----|
-------5-----------5--|------4-----------4--|------2-----------2--|
----------------------|---------------------|--0------------------|
----------------------|---------------------|---------------------|
--1-------------------|--0------------------|---------------------|


  D#7M                   G#7M                   Gm7                 
  E    E  E  E  E  E     E    E  E  E  E  E     E   E  E  E  E  E   
-------------0--------|-------------5--------|------------3--------|
----------0-----0-----|----------5-----5-----|---------3-----3-----|
-------0-----------0--|-------5-----------5--|------4-----------4--|
----------------------|----------------------|---------------------|
--3-------------------|----------------------|---------------------|
----------------------|--1-------------------|--0------------------|


  F#7                   Fm7                                       
  E   E  E  E  E  E     E   E  E  E  E  E     E  E    Q.      E   
------------3--------|---------------5--8--|-----------------15--|
---------2-----2-----|------------6--------|-----3s--12----------|
------3-----------3--|---------5-----------|--0------------------|
--1------------------|------7--------------|---------------------|
---------------------|--5------------------|---------------------|
---------------------|---------------------|---------------------|


                                   D#7M              
   H.              H.              E    E  H         
---L------------|---------------|----------0--------|
----------------|---------------|-------------------|
----------------|---------------|-------0-----------|
----------------|---------------|-------------------|
----------------|---------------|--3----------------|
----------------|---------------|-------------------|


  D#sus2add13/5-                D#7M                D#sus2add13/5-              
  E              E  H           E    E  H           E              E  H         
--------------------2--------|----------0--------|--------------------2--------|
-----------------------------|-------------------|-----------------------------|
-----------------2-----------|-------0-----------|-----------------2-----------|
-----------------------------|-------------------|-----------------------------|
--3--------------------------|--3----------------|--3--------------------------|
-----------------------------|-------------------|-----------------------------|


  Dm7                   C#m6                Cm7                       
         ^     ^                ^                                     
  E   E  E  E  E  E     E    E  H           E    E   E   E   E   E    
---------5-----5-----|----------3--------|-----------3---------------|
---------3-----3-----|----------2--------|-------------------1-------|
------4-----4-----4--|-------3-----------|------(2)-----(2)-----(2)--|
---------------------|-------------------|---------------------------|
--2------------------|--1----------------|--0------------------------|
---------------------|-------------------|---------------------------|


  F7                D#7M                           
        ^                                          
                               |---3--|  |--3--|   
  E  E  H           E     E    E   E  E  E  E  E   
--------2--------|------------(0)--------0--------|
--------1--------|-----------------0--------0-----|
-----2-----------|-------(0)----------0--------0--|
--0--------------|--------------------------------|
-----------------|--3-----------------------------|
-----------------|--------------------------------|


  D#sus2add13/5-                D#7M                       
                    ^                                      
                                        |--3--|  |--3--|   
  E              E  H           E    E  E  E  E  E  E  E   
--------------------2--------|----------0--------0--------|
--------------------3--------|-------------0--------0-----|
-----------------2-----------|-------0--------0--------0--|
-----------------------------|----------------------------|
--3--------------------------|--3-------------------------|
-----------------------------|----------------------------|


  D#sus2add13/5-                Dm7                   C#m6                   
                    ^                                                        
  E              E  H           E   E  E  E  E  E     E     E   E  E  E  E   
--------------------2--------|---------5-----------|------------3-----------|
--------------------3--------|------------3-----3--|---------------2-----2--|
-----------------2-----------|------4--------4-----|-------(3)--------3-----|
-----------------------------|---------------------|------------------------|
--3--------------------------|--2------------------|--1---------------------|
-----------------------------|---------------------|------------------------|


  Cm7                   F7                   G#7M                 
  E   E  E  E  E  E     E  E  E  E  E  E     E    E  E  E  E  E   
---------3-----------|--------2-----------|-------------5--------|
------------1-----1--|-----------1-----1--|----------5-----5-----|
------2--------2-----|-----2--------2-----|-------5-----------5--|
---------------------|--0-----------------|----------------------|
--0------------------|--------------------|----------------------|
---------------------|--------------------|--1-------------------|


  Gm7                   Fm7                   D#7M                 
  E   E  E  E  E  E     E   E  E  E  E  E     E    E  E  E  E  E   
------------3--------|------------1--------|-------------0--------|
---------3-----3-----|---------1-----1-----|----------0-----0-----|
------4-----------4--|------2-----------2--|-------0-----------0--|
---------------------|--0------------------|----------------------|
---------------------|---------------------|--3-------------------|
--0------------------|---------------------|----------------------|


  G#7M                   Gm7                   F#7                 
  E    E  E  E  E  E     E   E  E  E  E  E     E   E  E  E  E  E   
-------------5--------|------------3--------|------------3--------|
----------5-----5-----|---------3-----3-----|---------2-----2-----|
-------5-----------5--|------4-----------4--|------3-----------3--|
----------------------|---------------------|--1------------------|
----------------------|---------------------|---------------------|
--1-------------------|--0------------------|---------------------|


  Fm7                                                                        
  E   E  E  E  E  E     E  E    Q.      E      H.              H.            
---------------5--8--|-----------------15--|---L------------|---------------|
------------6--------|-----3s--12----------|----------------|---------------|
---------5-----------|--0------------------|----------------|---------------|
------7--------------|---------------------|----------------|---------------|
--5------------------|---------------------|----------------|---------------|
---------------------|---------------------|----------------|---------------|


  D#7M                D#sus2add13/5-                D#7M              
  E    E  H           E              E  H           E    E  H         
----------0--------|--------------------2--------|----------0--------|
-------------------|-----------------------------|-------------------|
-------0-----------|-----------------2-----------|-------0-----------|
-------------------|-----------------------------|-------------------|
--3----------------|--3--------------------------|--3----------------|
-------------------|-----------------------------|-------------------|


  D#sus2add13/5-                D#7M9                                           
                                                        |--3--|  |--3--|        
  E              E  H           E     E  E  E  E  E     E  E  E  E  E  E  Q     
--------------------2--------|-----------------------|--0----------------------|
-----------------------------|--------------0-----0--|-----0-----0-------------|
-----------------2-----------|-----------0-----0-----|--------0-----0----------|
-----------------------------|--------0--------------|-----------------0--L----|
--3--------------------------|--3--------------------|-------------------------|
-----------------------------|-----------------------|-------------------------|


  D#7M                                                           
  ^                                                              
  H.              H.              H.              H.             
--0------------|--L------------|--L------------|--L------------||
--0------------|--L------------|--L------------|--L------------||
--0------------|--L------------|---------------|--L------------||
--2------------|--L------------|--L------------|--L------------||
--3------------|--L------------|--L------------|--L------------||
---------------|---------------|---------------|---------------||




Ocarina



     H.              H.              H.              H.            
E||---------------|---------------|---------------|---------------|
B||---------------|---------------|---------------|---------------|
G||---------------|---------------|---------------|---------------|
D||---------------|---------------|---------------|---------------|
A||---------------|---------------|---------------|---------------|
E||---------------|---------------|---------------|---------------|


  H         Q        H        E   E     H         Q        H        Q     
-----------------|-------------------|-----------------|-----------------|
-----------------|-------------------|-----------------|-----------------|
--7--------10----|-------------------|--7--------10----|-----------------|
-----------------|--10--------8--10--|-----------------|--10-------------|
-----------------|-------------------|-----------------|-----------------|
-----------------|-------------------|-----------------|-----------------|


  H         Q       H         Q        H        E  E      H        Q     
-----------------|--8--------------|------------------|-----------------|
-----------------|-----------11----|------------------|-----------------|
--7--------10----|-----------------|--10--------8--7--|-----------------|
-----------------|-----------------|------------------|--10-------------|
-----------------|-----------------|------------------|-----------------|
-----------------|-----------------|------------------|-----------------|


  H         Q        H        E   E     H         Q        H        Q     
-----------------|-------------------|-----------------|-----------------|
-----------------|-------------------|-----------------|-----------------|
--7--------10----|-------------------|--7--------10----|-----------------|
-----------------|--10--------8--10--|-----------------|--10-------------|
-----------------|-------------------|-----------------|-----------------|
-----------------|-------------------|-----------------|-----------------|


  H         Q       H         Q        H.              H.            
-----------------|--8--------------|--13------------|---------------|
-----------------|-----------11----|----------------|---------------|
--7--------10----|-----------------|----------------|---------------|
-----------------|-----------------|----------------|---------------|
-----------------|-----------------|----------------|---------------|
-----------------|-----------------|----------------|---------------|


   H         E   E      E   E   Q.     E      H         E   E   
--13----------------|---------------------|--------------------|
------------16--15--|--16--15-------------|--16--------15--13--|
--------------------|----------15---------|--------------------|
--------------------|---------------------|--------------------|
--------------------|---------------------|--------------------|
--------------------|---------------------|--------------------|


   E   E   Q.     E      H         E   E      E   E   Q     Q     
---------------------|--13----------------|----------------------|
--15--13-------------|------------16--15--|--16--15--------16----|
----------12---------|--------------------|----------15----------|
---------------------|--------------------|----------------------|
---------------------|--------------------|----------------------|
---------------------|--------------------|----------------------|


   H.              H.              H.              H.            
--18------------|---------------|---------------|---------------|
----------------|---------------|---------------|---------------|
----------------|---------------|---------------|---------------|
----------------|---------------|---------------|---------------|
----------------|---------------|---------------|---------------|
----------------|---------------|---------------|---------------|


  H.              H         Q        H        E   E     H         Q     
---------------|-----------------|-------------------|-----------------|
---------------|-----------------|-------------------|-----------------|
---------------|--7--------10----|-------------------|--7--------10----|
---------------|-----------------|--10--------8--10--|-----------------|
---------------|-----------------|-------------------|-----------------|
---------------|-----------------|-------------------|-----------------|


   H        Q       H         Q       H         Q        H        E  E   
-----------------|-----------------|--8--------------|------------------|
-----------------|-----------------|-----------11----|------------------|
-----------------|--7--------10----|-----------------|--10--------8--7--|
--10-------------|-----------------|-----------------|------------------|
-----------------|-----------------|-----------------|------------------|
-----------------|-----------------|-----------------|------------------|


   H        Q       H         Q        H        E   E     H         Q     
-----------------|-----------------|-------------------|-----------------|
-----------------|-----------------|-------------------|-----------------|
-----------------|--7--------10----|-------------------|--7--------10----|
--10-------------|-----------------|--10--------8--10--|-----------------|
-----------------|-----------------|-------------------|-----------------|
-----------------|-----------------|-------------------|-----------------|


   H        Q       H         Q       H         Q        H.            
-----------------|-----------------|--8--------------|--13------------|
-----------------|-----------------|-----------11----|----------------|
-----------------|--7--------10----|-----------------|----------------|
--10-------------|-----------------|-----------------|----------------|
-----------------|-----------------|-----------------|----------------|
-----------------|-----------------|-----------------|----------------|


  H.               H         E   E      E   E   Q.     E      H         E   E   
---------------|--13----------------|---------------------|--------------------|
---------------|------------16--15--|--16--15-------------|--16--------15--13--|
---------------|--------------------|----------15---------|--------------------|
---------------|--------------------|---------------------|--------------------|
---------------|--------------------|---------------------|--------------------|
---------------|--------------------|---------------------|--------------------|


   E   E   Q.     E      H         E   E      E   E   Q     Q     
---------------------|--13----------------|----------------------|
--15--13-------------|------------16--15--|--16--15--------16----|
----------12---------|--------------------|----------15----------|
---------------------|--------------------|----------------------|
---------------------|--------------------|----------------------|
---------------------|--------------------|----------------------|


   H.              H.              H.              H.            
--18------------|---------------|---------------|---------------|
----------------|---------------|---------------|---------------|
----------------|---------------|---------------|---------------|
----------------|---------------|---------------|---------------|
----------------|---------------|---------------|---------------|
----------------|---------------|---------------|---------------|


  H.              H.              H.              H.              H.            
---------------|---------------|---------------|---------------|---------------|
---------------|---------------|---------------|---------------|---------------|
---------------|---------------|---------------|---------------|---------------|
---------------|---------------|---------------|---------------|---------------|
---------------|---------------|---------------|---------------|---------------|
---------------|---------------|---------------|---------------|---------------|


  H.              H.              H.              H.              H.            
---------------|---------------|---------------|---------------|---------------|
---------------|---------------|---------------|---------------|---------------|
---------------|---------------|---------------|---------------|---------------|
---------------|---------------|---------------|---------------|---------------|
---------------|---------------|---------------|---------------|---------------|
---------------|---------------|---------------|---------------|---------------|


  H.             
---------------||
---------------||
---------------||
---------------||
---------------||
---------------||




Duration Legend
---------------
W - whole
H - half
Q - quarter
E - 8th
S - 16th
T - 32nd
X - 64th
. - note dotted
|-n-|  - n-tuplets


Tablature Legend
----------------
L - tied note
(n) - ghost note
s - legato slide
^ - brush up
Login or Register to remove this ad.

1 comment on Zelda's Lullaby (SongeLeReveur Version)

I haven't really noticed

5

I haven't really noticed these tablatures until now. How come I missed out such a great arranger?

Congratulations for this accurate transcription. I'll make sure to compliment sir SongeLeReveur myself!