Ads

Shooting Game (Legend of Zelda: Ocarina of Time) Guitar Tab

Submitted: Jan 22, 2010 by LTRobson (Last updated: Feb 02, 2010)

5
Average: 5 (2 votes)
Download | Listen
Game: Legend of Zelda: Ocarina of Time
Composer(s): Koji Kondo
Style: 2 or more instruments, Alternate picking, Arrangement
Series: Legend of Zelda

AutoScroll: Slow | Medium | Fast
The Legend Of Zelda: The Ocarina Of Time - Shooting Game (N64)
Tabbed by LTRobson Jan 2010

Standard tuning

Do you want to play a game?
It's 20 Rupees per play.
--> Yes
    Nope

  C                          G7
|-------------------0--0--3--3h5-3-1--0-1-
|--------------1--1-----------------------
|-0------0--0-----------------------------
|---3-2-----------------------------------
|-----------------------------------------
|-----------------------------------------

  G7                          C
|--------------------------1--1h3-1-0----0-
|--------------------0--0--------------3---
|--------------0--0------------------------
|-3-2-0--3--3------------------------------
|------------------------------------------
|------------------------------------------

  C                          G7
|-------------------0--0--3--3h5-3-1--0-1-
|--------------1--1-----------------------
|-0------0--0-----------------------------
|---3-2-----------------------------------
|-----------------------------------------
|-----------------------------------------

  G7                         C
|-7--5-5/-3-3/-1-1h3-1-0------------------
|-------------------------3--1------------
|-----------------------------------------
|-----------------------------------------
|-----------------------------------------
|-----------------------------------------

  F            C           G7          C    
|---------5----3-3-3-0--3--1-1-1-0---------0-
|-------1-6-------------------------3--1-3---
|-2--2--2------------------------------------
|-3--3---------------------------------------
|--------------------------------------------
|--------------------------------------------

  F            C           G7          C
|---------5----3-3-3-0--3--1-1-1-0-----------
|-------1-6-------------------------3--1-----
|-2--2--2------------------------------------
|-3--3---------------------------------------
|--------------------------------------------
|--------------------------------------------
Login or Register to remove this ad.

1 comment on Shooting Game

¡Hahaha this is awesome! It

¡Hahaha this is awesome! It bring me so many memories.
Great tab.