Ads

Market (Legend of Zelda: Ocarina of Time) Guitar Tab

Submitted: Jan 15, 2010 by LTRobson (Last updated: Jan 18, 2010)

5
Average: 5 (2 votes)
Download | Listen
Game: Legend of Zelda: Ocarina of Time
Composer(s): Koji Kondo
Style: Arrangement, Fingerstyle
Series: Legend of Zelda

AutoScroll: Slow | Medium | Fast
The Legend Of Zelda: The Ocarina Of Time - Market (N64)
Simple solo guitar arrangement
Tabbed by LTRobson Jan 2010

Standard tuning

|----------------------0h2-3---
|-3--3--3p1p0-1--3--3--------3-
|------------------------------
|------------------------------
|-------0--------2-----3-------
|-3----------------------------

|-------------------------------
|-3--3--3p1p0-1--3p1p0--1p0----- x2
|---------------------------2-0-
|-----------------------0-------
|-------0--------3--------------
|-3---------------------------3-

Next section

|---------------------------------
|-----------0-------1p0-------0---
|-2-2-2p0-2----2--2-----2p0-2---2-
|-0---------0-----0-----------0---
|---------------------------------
|---------------------------------

|-------------------------------
|-----------0-------0-1-3p1p0---
|-2-2-2p0-2----2--2-----------2-
|-0---------0-----0-----------0-
|-------------------------------
|-------------------------------

|---------------------------------
|-----------0-------1p0-------0---
|-2-2-2p0-2----2--2-----2p0-2---2-
|-0---------0-----0-----------0---
|---------------------------------
|---------------------------------

|-------------------0-1-3-
|-----------0-----3-0-1-3-
|-2-2-2p0-2----2--2-----0-
|-0---------0-----0-------
|-------------------------
|-------------------------
Login or Register to remove this ad.

4 comments on Market

Great

This is really great! Thanks for tabbing, you do great work.

Thanks very much. :)

Thanks very much. :)

right on man

5

This... *sniff, this is beautiful.

Stellar and simple, although

5

Stellar and simple, although the last bit seems unnecessarily cloggy, compared to the rest of the piece:

|-------------------0-1-3-
|-----------0-----3-0-1-3-  
|-2-2-2p0-2----2--2-----0-
|-0---------0-----0-------
|-------------------------
|-------------------------

Also this changes the last chord to a G when it should remain a D.

I prefer:

|-------------------------
|-----------0-------0-1-3-
|-2-2-2p0-2----2--2-----2-
|-0---------0-----0-----0-
|-------------------------
|-------------------------