Ads

Great Fairy Fountain (Legend of Zelda: Ocarina of Time) Guitar Tab

Submitted: Jan 18, 2010 by LTRobson (Last updated: Jan 18, 2010)

0
Download | Listen
Game: Legend of Zelda: Ocarina of Time
Composer(s): Koji Kondo
Style: Arrangement, Fingerstyle
Series: Legend of Zelda

AutoScroll: Slow | Medium | Fast
The Legend Of Zelda: The Ocarina Of Time - Great Fairy Fountain (N64)
Fingerstyle guitar
Tabbed by LTRobson Jan 2010

Standard tuning

I've put all the bass notes on the low e string but I can't find a way
to play them together, so they're just for show.


Hold the high notes for as long as possible.
|-5-------3-------2-------3-------3-------1-------0-------1-------
|---3-------3-------3-------3-------1-------1-------1-------1-----
|-----3-0-----3-0-----3-0-----3-0-----2-------2-------2-------2---
|---------------------------------------3-------3-------3-------3-
|-----------------------------------------------------------------
|-6-------------------------------5-------------------------------


|-1-------0---------------0---------------------------------------
|-----------------4---------------5-------3-------2-------3-------
|---3-0-----3-0-----3-0-----3-0-----2-------2-------2-------2-----
|-------2-------2-------2-------2-----3-0-----3-0-----3-0-----3-0-
|-----------------------------------------------------------------
|-3-------------------------------1-------------------------------


|-5-------3-------2-------3-------6-------5-------4-------5-------
|---3-------3-------3-------3-------4-------4-------4-------4-----
|-----3-0-----3-0-----3-0-----3-0-----5-2-----5-2-----5-2-----5-2-
|-----------------------------------------------------------------
|-----------------------------------------------------------------
|-6-------------------------------5---------------10--------------


|-8-------6-------5-------6-------5-------3-------1-------0-------
|-----------3-------3-------3-------------------------------------
|---7-3-0-----3-0-----3-0-----3-0---3-0-----3-0-----3-0-----3-0---
|---------------------------------------2-------2-------2-------2-
|-----------------------------------------------------------------
|-3-------------------------------7-------------------------------
Login or Register to remove this ad.