Ads

Gerudo Valley (Legend of Zelda: Ocarina of Time) Bass/Guitar Tab

Submitted: Apr 23, 2010 by Finstahy

5
Average: 5 (6 votes)
Download | Listen
Game: Legend of Zelda: Ocarina of Time
Composer(s): Koji Kondo
Style: 2 or more instruments, Alternate picking, Fingerstyle, Transcription
Series: Legend of Zelda

AutoScroll: Slow | Medium | Fast
Title: Gerudo Valley
Composer: Koji Kondo
Game: Ocarina of Time
Platform: Nintendo 64
Year: 1998
Tabbed by Finny Yoder - [email protected]


Parts:

Guitar 1 | Lead 1               | (acoustic, classical) | Don't use pick
Guitar 2 | Lead 2               | (electric, clean)     | Use pick
Guitar 3 | Lead 2 (harmonizing) | (electric, clean)     | Use pick
Guitar 4 | Rhythm               | (acoustic, classical) | Don't use pick
Bass 1   | bass line            | (optional)            | Optional


Road-map:

Play both parts of the intro. Then play melodies 1-5 in order.
Just loop melodies 1-5 until you feel like stopping and just fade out.


Other info:

Tuning      =  Standard
Tempo       =  240 bpm
Key         =  F# Minor
Time Sign.  =  4/4



**NOTE**
Each space between rows of number signs (#) is it's own section.
Unless stated otherwise, instructions refer to ONLY THAT ONE SECTION!
                                      

#######################################################################

Intro Pt. 1:

Guitar 1

e-|---------------5-------7^--------|
B-|-----0-3---7-------6h9-----------|
G-|---------------------------------|
D-|---6-----------------------------|
A-|-4-------------------------------|
E-|---------------------------------|


Bass 1

G-|-------------------1-------------|
D-|---------------------2-0---------|
A-|-4-----------------------4-------|
E-|---------------------------------|

#######################################################################

Intro pt. 2:

Guitar 4

    F#m                               D

e-|-2-2-2-2---2-2-2-2-2-2-2---2-2-2-|-2-2-2-2---2-2-2-2-2-2-2---2-2-2-|
B-|-2-2-2-2---2-2-2-2-2-2-2---2-2-2-|-3-3-3-3---3-3-3-3-3-3-3---3-3-3-|
G-|-2-2-2-2---2-2-2-2-2-2-2---2-2-2-|-2-2-2-2---2-2-2-2-2-2-2---2-2-2-|
D-|-4-4-4-4---4-4-4-4-4-4-4---4-4-4-|-4-4-4-4---4-4-4-4-4-4-4---4-4-4-|
A-|---------------------------------|---------------------------------|
E-|---------------------------------|---------------------------------|

            m               m                 m               m

    E                                 C#

e-|-0-0-0-0---0-0-0-0-0-0-0---0-0-0-|-1-1-1-1---1-1-1-1-1-1-1---1-1-1-|
B-|-0-0-0-0---0-0-0-0-0-0-0---0-0-0-|-2-2-2-2---2-2-2-2-2-2-2---2-2-2-|
G-|-1-1-1-1---1-1-1-1-1-1-1---1-1-1-|-1-1-1-1---1-1-1-1-1-1-1---1-1-1-|
D-|-2-2-2-2---2-2-2-2-2-2-2---2-2-2-|-3-3-3-3---3-3-3-3-3-3-3---3-3-3-|
A-|---------------------------------|---------------------------------|
E-|---------------------------------|---------------------------------|

            m               m                 m               m


Bass 1

G-|---------------------------------|---------------------------------|
D-|-4-------4-------4-------4-------|-0-------0-------0-------0-------|
A-|---------------------------------|---------------------------------|
E-|---------------------------------|---------------------------------|


G-|---------------------------------|---------------------------------|
D-|-2-------2-------2-------2-------|---------------------------------|
A-|---------------------------------|-4-------4-------4-------4-------|
e-|---------------------------------|---------------------------------|

Now repeat this section throughout the rest of the song.

#######################################################################

Melody 1:

Guitar 1 (Play twice)

e-|-----2h4-5-------2h4-5-----------|-----2h4-5-------2h4-5-----------|
B-|---2-----------2-----------------|---3-----------3-----------------|
G-|---------------------------------|---------------------------------|
D-|---------------------------------|---------------------------------|
A-|---------------------------------|---------------------------------|
E-|---------------------------------|---------------------------------|


e-|-----0h2-4-------0h2-4-----------|---2h4p2-1-----------------------|
B-|---0-----------0-----------------|---------------------------------|
G-|---------------------------------|---------------------------------|
D-|---------------------------------|---------------------------------|
A-|---------------------------------|---------------------------------|
E-|---------------------------------|---------------------------------|


Guitar 2 and/or 3 (Play once along with guitar 1 it's second time)

e-|-----2h4-5-------2h4-5-----------|-----2h4-5-------2h4-5-----------|
B-|---2-----------2-----------------|---3-----------3-----------------|
G-|---------------------------------|---------------------------------|
D-|---------------------------------|---------------------------------|
A-|---------------------------------|---------------------------------|
E-|---------------------------------|---------------------------------|


e-|-----0h2-4-------0h2-4-----------|---5h7p5-4-----------------------|
B-|---0-----------0-----------------|---------------------------------|
G-|---------------------------------|---------------------------------|
D-|---------------------------------|---------------------------------|
A-|---------------------------------|---------------------------------|
E-|---------------------------------|---------------------------------|

#######################################################################

Melody 2:

Guitar 1

e-|-----------5-----4-----2---------|-0-------0h2p0-------------------|
B-|-----2----------------------2----|---------------3-----------------|
G-|---------------------------------|---------------------------------|
D-|---------------------------------|---------------------------------|
A-|---------------------------------|---------------------------------|
E-|---------------------------------|---------------------------------|


e-|-----------4-----2-----0---------|---------------------------------|
B-|-----0----------------------3----|-2-------3h5p3-2-----------------|
G-|---------------------------------|---------------------------------|
D-|---------------------------------|---------------------------------|
A-|---------------------------------|---------------------------------|
E-|---------------------------------|---------------------------------|


e-|-----------5-----4-----2---------|-0-------0h2p0-------------------|
B-|-----2----------------------2----|---------------3-----------------|
G-|---------------------------------|-----------------------------2---|
D-|---------------------------------|---------------------------------|
A-|---------------------------------|---------------------------------|
E-|---------------------------------|---------------------------------|


e-|-------------2---0---------------|---------------------------------|
B-|-0-----------0---0-----------3---|-2-------------------------------|
G-|-----------------------------1---|-1-------------------------------|
D-|---------------------------------|---------------------------------|
A-|---------------------------------|---------------------------------|
E-|---------------------------------|---------------------------------|

#######################################################################

Melody 3:

Guitar 1

e-|-----5-----4-----5-----4---------|-0-------------------------------|
B-|----------------------------2----|-----------3p2h3-----------------|
G-|---------------------------------|---------------------------------|
D-|---------------------------------|---------------------------------|
A-|---------------------------------|---------------------------------|
E-|---------------------------------|---------------------------------|


e-|-----4-----2-----4-----0---------|---------------------------------|
B-|----------------------------3----|-2-------3h5p3-2-----------------|
G-|---------------------------------|---------------------------------|
D-|---------------------------------|---------------------------------|
A-|---------------------------------|---------------------------------|
E-|---------------------------------|---------------------------------|


e-|---------------------------------|---------------------------------|
B-|---------------------------------|-----------------------------3---|
G-|-----------6-----------6---------|-----------7-----------7-----2---|
D-|-----4/6h7-------4/6h7-----------|-----4/6h7-------4/6h7-----------|
A-|---------------------------------|---------------------------------|
E-|---------------------------------|---------------------------------|


e-|-------------4---2---------------|---------------------------------|
B-|-0-----------5---3-----------0---|-2-------------------------------|
G-|-----------------------------1---|-1-------------------------------|
D-|---------------------------------|---------------------------------|
A-|---------------------------------|---------------------------------|
E-|---------------------------------|---------------------------------|

#######################################################################

Meldoy 4:

Guitar 2

e-|-5p4h5-----------------4-5-7-5-4-|-5-4-5---------------------------|
B-|---------------------7-----------|---------------------------------|
G-|---------------------------------|---------------------------------|
D-|---------------------------------|---------------------------------|
A-|---------------------------------|---------------------------------|
E-|---------------------------------|---------------------------------|


e-|-4-2-4---------------0-2-4-5-4-2-|-4p2\1---------------------------|
B-|---------------------------------|---------------------------------|
G-|---------------------------------|---------------------------------|
D-|---------------------------------|---------------------------------|
A-|---------------------------------|---------------------------------|
E-|---------------------------------|---------------------------------|


e-|-5p4h5-----------------4-5-7-5-4-|-5-4-5---------------------------|
B-|---------------------7-----------|---------------------------------|
G-|---------------------------------|---------------------------------|
D-|---------------------------------|---------------------------------|
A-|---------------------------------|---------------------------------|
E-|---------------------------------|---------------------------------|


e-|-7-5-7-------------------------0-|---------------------------------|
B-|-------------------------0-2-3---|-2-3-2---------------------------|
G-|---------------------1-2---------|---------------------------------|
D-|---------------------------------|---------------------------------|
A-|---------------------------------|---------------------------------|
E-|---------------------------------|---------------------------------|


Guitar 3 (Play along with the 2nd half of Guitar 2's part)

e-|---------------------------------|---------------------------------|
B-|-2-0-2-----------------0-2-3-2-0-|-2-0-2---------------------------|
G-|---------------------2-----------|---------------------------------|
D-|---------------------------------|---------------------------------|
A-|---------------------------------|---------------------------------|
E-|---------------------------------|---------------------------------|


e-|---------------------------0-2-4-|-1-2-1---------------------------|
B-|-3-2-3---------------0-2-3-------|---------------------------------|
G-|---------------------------------|---------------------------------|
D-|---------------------------------|---------------------------------|
A-|---------------------------------|---------------------------------|
E-|---------------------------------|---------------------------------|

**Note**
Guitar 3 harmonizes in 6th's.

#######################################################################

Melody 5:

Guitar 1

e-|---------------------------------|---------------------------------|
B-|---------------------------------|---------------------------------|
G-|-----2-1-----2-------2-1-----4---|-----2-1-----2-------2-1-----4---|
D-|-4---------------4---------------|-0---------------0---------------|
A-|---------------------------------|---------------------------------|
E-|---------------------------------|---------------------------------|


e-|---------------------------------|---------------------------------|
B-|-----0-------0-------0-------0---|-3h5p3-2-------------------------|
G-|-------3---------------3---------|---------------------------------|
D-|-2---------------2---------------|---------------------------------|
A-|---------------------------------|---------------------------------|
E-|---------------------------------|---------------------------------|

#######################################################################

Key:

8^   =   Full Bend (1 Whole step)
m    =   Mute
p    =   Pull-off
h    =   Hammer-on
1/3  =   Slide up
3\1  =   Slide down

I hope you enjoyed learning one of the best songs in videogame history!
Login or Register to remove this ad.

2 comments on Gerudo Valley

Very nice!

5

Very nice!

I think this is really good.

5

I think this is really good. I like the fact that you split the guitar up. Now I can play it with a bunch of friends and it'll sound good. This is just awesome.