Ads

A Storm in the Desert (Legend of Zelda: Ocarina of Time) Guitar Tab

Submitted: Jul 28, 2009 by ChelseaRare (Last updated: Feb 04, 2010)

5
Average: 5 (5 votes)
Download | Listen
Game: Legend of Zelda: Ocarina of Time
Composer(s): Koji Kondo
Style: Arrangement, Fingerstyle, Transcription
Series: Legend of Zelda

AutoScroll: Slow | Medium | Fast
Title: "A Storm in the Desert" 
Arranged by Tyler Heath
Tabbed by ChelseaRare

Songs included: Bolero of Fire, Requium of Spirit, Windmill Hut /Song of Storms
All composed by Koji Kondo


Basically I fell in love with this arrangement and I felt the need to see if I could do something with it on guitar. 



Tuning: Standard (Capo 4)


     H.              H.              H.              Q.     Q.      
E||---------------|---------------|---------------|----------------|
B||---------------|---------------|---------------|--5------4------|
G||---------------|---------------|---------------|----------------|
D||--6------------|--4------------|--2------------|--2------1------|
A||--6------------|--4------------|--2------------|----------------|
E||--4------------|--2------------|--0------------|----------------|


    E  E  H           E  E  H           Q.     E  E  E     E  E  H         
|---------4--------|--------4--------|--6------7--6--7--|--6--------------|
|------------------|-----------------|------------------|-----7-----------|
|*-----4-----------|--1--4-----------|------------------|--------8--------|
|*--6--------------|-----------------|------------------|-----------------|
|------------------|-----------------|------------------|--6--------------|
|---4--------------|--0--------------|--2---------------|-----------------|


  Q    Q    E  E     H.              Q    Q    E  E     E  E  Q    Q       
------------------|---------------|------------7--6--|--2----------------||
--4------------2--|--4------------|--4---------------|-----4-------------||
-------1----4-----|---------------|-------1----------|--------3----4----*||
------------------|---------------|------------------|--4---------------*||
------------------|---------------|------------------|-------------------||
--0---------------|--4------------|--0---------------|-------------------||


  H        Q       Q    Q    Q       H.                Q    E  E  E  E   
----------------|--4----L----L----|--L------------||--------------------|
--4--------4----|-----------------|---------------||--------4-----------|
----------------|-----------------|---------------||*--1-------------1--|
----------------|-----------------|---------------||*-------------1-----|
----------------|-----------------|---------------||-----------2--------|
--4-------------|--4----2----6----|--4------------||--------4-----------|


  Q    E  E  Q       Q    E  E  Q       Q    E  E  Q       Q    E  E  E  E   
-------2----------|-------------4----|--L----------4----|-------------------|
--2----------2----|----------0-------|----------0-------|-------4-----------|
--L---------------|--3----1----------|-------1----------|--1----------------|
------------------|------------------|------------------|-------------2--4--|
----------4-------|--L---------------|------------------|----------2--------|
-------2----------|-------4----------|--L----2----------|--L----0-----------|


  Q    E  E  Q       Q    E  E  Q       Q    E  E  E  E     Q    E  E  E  E     
-------2--4--6----|--2----------4----|--L----2-----------|--2-----------------||
--2---------------|----------0--4----|--L----------4-----|-------2------------||
------------------|-------1----------|-------------------|-------------------*||
--L---------------|------------------|-------------1--2--|--L----------2--4--*||
------------------|------------------|----------2--------|----------2---------||
-------2----------|--L----4----------|--L----0-----------|-------0------------||


  Q    E  E  Q       H.              E  E  E  E  E  E  E  E   
--2----------4----|--L------------|--------------------------|
----------0--4----|--L------------|--------0--2--4-----------|
-------1----------|---------------|--1--3-----------------1--|
------------------|---------------|--------------------1-----|
------------------|---------------|--------2--------2--------|
-------4----------|--L------------|--4-----------4-----------|


  Q    E  E  Q       Q    E  E  E  E     E  E  E  E  Q       Q    E  E  E  E   
-------2----------|-------------4-----|--L-----------4----|-------------------|
--2----------2----|----------0--------|-----------0-------|-------4-----------|
--L---------------|--3----1-----1-----|--4--3--1----------|--1----------------|
------------------|----------------4--|-----------1-------|-------------2--4--|
----------4-------|--L-------2--------|--------------2----|----------2--------|
-------2----------|-------4-----------|--L-----2----------|--L----0-----------|


  Q    E  E  Q       Q    E  E  E  E     Q    H           H.            
-------2--4--6----|--2----------------|----------------|---------------|
--2---------------|-------4-----------|--0-------------|---------------|
------------------|-------------------|-------3--------|--L------------|
--L---------------|-------------1--2--|--L----1--------|--L------------|
------------------|----------2--------|----------------|---------------|
-------2----------|--L----0-----------|----------------|---------------|


  Q    Q    H           E  E  E  E  E  E  E  E     E  E  E  E  E  E  E  E   
---------------------|--------------------------|--------------0-----0-----|
-------4----0--------|--------------4-----4-----|--2-----2--------2-----2--|
--1------------------|--4-----4--------4-----4--|-----3-----3--------------|
---------------------|-----6-----6--------------|--------------------------|
---------------------|--------------------------|--------------------------|
--4------------------|--4-----------4-----------|--2-----------2-----------|


  E  E  E  E  E  E  E  E     E  E  E  E  E  E  E  E     Q    E  E  E  E  E  E   
--------------------------|--------0-----------------|-------------------------|
--------4-----------5-----|--2--------2--------------|-------------------------|
--4--------4--6--------6--|-----3--------4-----3-----|-------------------------|
-----6-----------8--------|-----------------6-----4--|--6-------------------2--|
--------------------------|--------------------------|-------------2--4--6-----|
--4-----------6-----------|--2-----------6-----------|--4----4--6--------------|


  E  E  E  E  E  E  E  E     E  E  E  E  E  E  E  E   
--------------------------|--------------0-----0-----|
--------------4-----4-----|--2-----2--------2-----2--|
--4-----4--------4-----4--|-----3-----3--------------|
-----6-----6--------------|--------------2-----------|
--------------6-----------|--------------------------|
--4-----------------------|--2-----------------------|


  E  E  E  E  E  E  E  E     E  E  E  E  E  E  E  E     H        E  E  E  E   
--------------------------|--------------0-----0-----|-----------------------|
--------------4-----4-----|--2-----2--------2-----2--|--L-----------------4--|
--4-----4--------4-----4--|-----3-----3--------------|-----------4--3--------|
-----6-----6--------------|--------------------------|-----------------6-----|
--------------6-----------|--------------------------|-----------2-----------|
--4-----------------------|--2-----------2-----------|--L--------------4-----|


  E  E  H.              W                     Q    E  E  Q    Q     
---------------------|-------------------||------------------------|
---------------------|-------------------||--------------4---------|
--4--3---------------|-------------------||*--1----4--1-------4----|
--------6------------|--L----------------||*-----------------------|
--2------------------|-------------------||--------------1---------|
--------4------------|--L----------------||---4--------------------|


  H        H           E  E  E  E  E  E  Q       E  E  E  E  E  E  Q       
--------------------|-----------4--------2----|-----------4--------2-----||
--------------------|-----0--4--------2-------|-----0--4--------2--------||
--1-----------------|--1-----------3----------|--1-----------3----------*||
--------------------|-------------------------|-------------------------*||
--2--------1--------|--------------1----------|--2-----------1-----------||
--------------------|--4----------------------|--------------------------||


  Q    E  E  Q    Q       E  E  H           E  E  H           Q.     E  E  E   
-----------------------|--------4--------|--------4--------|--6------7--6--7--|
-------------4---------|-----------------|-----------------|------------------|
--1----4--1-------4----|-----4-----------|--1--4-----------|------------------|
-------------1---------|--6--------------|-----------------|------------------|
-------2----------2----|-----------------|-----------------|------------------|
--4-------4------------|--4--------------|--0--------------|--2---------------|


  E  E  H           E  E  H           E  E  H           Q.     E  E  E   
--6--------------|--------4--------|--------4--------|--6------7--6--7--|
-----7-----------|-----------------|-----------------|------------------|
--------8--------|-----4-----------|--1--4-----------|------------------|
-----------------|--6--------------|-----------------|------------------|
--6--------------|-----------------|-----------------|------------------|
-----------------|--4--------------|--0--------------|--2---------------|


  E  E  H           Q    Q    E  E     H        Q       Q    Q    Q     
--6--------------|------------------|----------------|--4----L----L----|
-----7-----------|--4------------2--|--4--------4----|-----------------|
--------8--------|-------1----4-----|----------------|-----------------|
-----------------|------------------|----------------|-----------------|
--6--------------|------------------|----------------|-----------------|
-----------------|--0---------------|--4-------------|--4----2----6----|


  H.              Q    E  E  Q    Q       Q    Q    Q    Q     
--L------------|-----------------------|-----------------4----|
---------------|-------------4---------|------------4---------|
---------------|--1----4--1-------4----|--1----4--------------|
---------------|-------------1---------|----------------------|
---------------|-------2----------2----|----------------------|
--4------------|--4-------4------------|--4-------------------|


  W                  
--6----------------||
-------------------||
-------------------||
-------------------||
-------------------||
-------------------||




Duration Legend
---------------
W - whole
H - half
Q - quarter
E - 8th
. - note dotted
Login or Register to remove this ad.

4 comments on A Storm in the Desert

This is very beautiful... I'm

5

This is very beautiful... I'm glad you finished it, Chelsea. I didn't expect it so soon! lol great job :)

Great!

Great!

Sweet

5

Great work :)

Easier way to play

In the windmill hut section there is a part that requires you to hold down the 4th fret on the high E and play freats 2, 6, and four on the low. If you can't do it, what I do is play 2 on the low E, 1 on A, and then 4 on the low E