Ads

Introduction (Legend of Zelda: The Minish Cap) Guitar Tab

Submitted: Oct 28, 2009 by Tanimax (Last updated: Jun 09, 2012)

5
Average: 5 (1 vote)
Download | Listen
Game: Legend of Zelda: The Minish Cap
Composer(s): Mitsuhiko Takano
Style: Arrangement, Fingerstyle
Series: Legend of Zelda

AutoScroll: Slow | Medium | Fast
Story
Legend of Zelda: The Minish Cap
Composer: Koji Kondo
Tabber and Arranger is Tanimax =)

To be fair, I learnt (stole) the melody from Archards tab,
then arranged my own bass notes in... so here's credit for that.

  Am		     G    Am
|-----------------------------------------------|
|------1-0---------1-3-0-------1-0--------------|
|--2-------2-0-2---------0-2-------2-0-2--------|
|------2-------2---2-----------2-------2--------|
|--0-------0---0---------2-0-------0---0--------|
|--------------------3--------------------------|

  Am     G    Am     G     Am    G		    
|----------------------3------------------------|
|--1---1-3-0---1---1-3-3---1---1-3-0-3-3-----2--|
|------------0---------0---------0-----0--------|
|--2-----------2-----------2-----------0-----2--|
|------------2---------------------2------------|
|--------3-----------3-3---------3-----3--------|
Login or Register to remove this ad.