Song of Healing (Legend of Zelda: Majora's Mask) Ukulele Tab

Submitted: Mar 06, 2010 by Stamen47

4.666665
Average: 4.7 (3 votes)
Download | Listen
Game: Legend of Zelda: Majora's Mask
Composer(s): Koji Kondo, Toru Minegishi
Style: Arrangement, Fingerstyle, Natural harmonics
Series: Legend of Zelda

AutoScroll: Slow | Medium | Fast
                                Song of Healing                                 

Music by Koji Kondo
Tab by Stamen47

     E  E  E  E  E  E     E  E  E  E  E  E     E  E  E  E  E  E   
A||--9-----7-----------|--9-----7-----------|--9-----7--------0--|
E||--8-----------8-----|--------------8-----|--8-----------7-----|
C||--------------------|--------------------|--------------------|
G||--0--0-----0-----0--|--L--0-----0-----0--|--0--0-----0--------|


  E  Q    Q    E     E  E  E  E  E  E     E  E  E  E  E  E   
------------------|--9-----7-----------|--9-----7-----------|
--7---------------|--8-----------8-----|--------------8-----|
--6--6----6----6--|--------------------|--------------------|
------------------|--0--0-----0-----0--|--L--0-----0-----0--|


                                             NH                 
  E  E  E  E  E  E     E  Q    Q    E        E  E  E  E  E  E   
--9-----7--------0--|------------------|-----0-----------------|
--8-----------7-----|--7---------------|--------0-----0-----0--|
--------------------|--6--6----6----6--|--<>12-----7-----6-----|
--0--0-----0--------|------------------|-----------------------|


     NH                                                         
     E  E  E  E  E  E     E  E  E  E  E  E     E  Q    Q    E   
-----0-----------------|--3-----2-----------|------------------|
--------0-----0-----0--|--------------2--0--|--2---------------|
--<>12-----7-----6-----|-----2-----2--------|--2--2----2----2--|
-----------------------|--0-----------------|------------------|


  E  E  E  E  E  E     E  E  E  E  E  E     E  E  Q    Q       E  Q    Q    E   
--0-----------------|--0-----------------|--3-----2----9----|--5---------------|
-----0-----0-----0--|-----0-----0-----0--|------------------|------------------|
--------------6-----|--------------6-----|-----2------------|-----2----2----2--|
--5-----0-----------|--5-----0-----------|--0---------------|--4---------------|


  E  E  E  E  E  E      E   E   E   E   Q       E  E  E  E  E  E   
--7-----7-----7-----|--12------12------12----|--5-----5-----5-----|
--------5-----------|----------12------12----|--------3-----------|
-----5-----5-----5--|------12----------------|-----4-----4-----4--|
--5-----------5-----|--10----------10--------|--4-----------4-----|


   Q    Q    Q       E  E  E  E  E  E     E  E  E  E  E  E   
--10----5---------|--3-----3-----3-----|--8-----8-----8-----|
-------------3----|--------1-----------|--8--------8--------|
--11--------------|-----2-----2-----2--|-----9--------9--5--|
--------4---------|--2-----------2-----|--------7-----------|


  ^                                                          
  E  E  E  E  E  E     E  Q    Q    E     E  E  E  E  E  E   
--2-----0-----7-----|--2---------------|--7-----7-----7-----|
--0-----0-----------|--0---------------|--------5-----------|
--0--0-----0-----0--|-----0----0----0--|--5--5-----5-----5--|
--0-----------0-----|--0---------------|--5-----------5-----|


   E   E   E   E   Q       E  E  E  E  E  E      Q    Q    Q     
--12------12------12----|--5-----5-----5-----|--10----5---------|
----------12------12----|--------3-----------|-------------3----|
------12----------------|-----4-----4-----4--|--11--------------|
--10----------10--------|--4-----------4-----|--------4---------|


  E  E  E  E  E  E     E  E   E  E   Q       E  E  E  E   E   E   
--3-----5-----7-----|--8-----10-----12----|--7-----9-----12------|
--5-----------------|--8------------------|--8-----------12------|
--5--5-----5-----5--|--9--9------9--------|--6--6-----6----------|
--------------------|---------------------|------------------11--|


   E   E   Q     Q      
--14------------------||
------11--------11----||
--11------11----------||
----------------------||




Duration Legend
---------------
W - whole
H - half
Q - quarter
E - 8th
. - note dotted


Tablature Legend
----------------
L - tied note
NH - natural harmonic
^ - brush up

Login or Register to remove this ad.

3 comments on Song of Healing

I take it you have a ukelele

4

I take it you have a ukelele now? Great work, hope you'll be arranging more frequently again.

stamen47!!!!!

stamen47!!!!!

Wow, I didn't expect an

5

Wow, I didn't expect an Ukulele arrangement from sir Stamen47!
It truly sounds great, though. Even better than the arrangements for classical guitar that I've heard.
Maybe I should get myself an ukulele?