Ads

Shop (Legend of Zelda: Link's Awakening) Guitar Tab

Submitted: Mar 06, 2010 by auriplane (Last updated: Mar 08, 2010)

5
Average: 5 (2 votes)
Download | Listen
Game: Legend of Zelda: Link's Awakening
Composer(s): Kazumi Totaka, Minako Hamano, Kozue Ishikawa
Style: 2 or more instruments, Alternate picking, Transcription
Series: Legend of Zelda

AutoScroll: Slow | Medium | Fast
                         The Legend of Zelda - Link's Awakening - Shop GUITAR TAB
                                         Composed by Koji Kondo

                                 Tabbed by Auriplane ([email protected])



If you want to play it lower, scroll down for a transposed version of the first guitar.  
Standard tuning.




                                              FIRST GUITAR


   Q.       E  Q     Q      H           E  E  E  E   Q     E  E  Q     Q      Q     E  E  H
e |15----------------------|------------------------|------------------------|------------------------|
B |---------15-12----------|------------16-13-------|------15-12-------------|------------------------|
G |------------------12----|13----------------13----|------------12----------|------------------------|
D |------------------------|---------------------13-|12----------------12----|15----13-15-12----------|
A |------------------------|------------------------|------------------------|------------------------|
E |------------------------|------------------------|------------------------|------------------------|


   Q     Q     Q     Q      Q     Q     Q     Q      Q     Q     Q     Q      E  E  E  E  H
e |------------11----10----|9-----10----8-----9-----|7-----8-----6-----7-----|5--6--4--5--------------|
B |------------------------|------------------------|------------------------|------------------------|
G |------------------------|------------------------|------------------------|------------------------|
D |11----12----------------|------------------------|------------------------|------------------------|
A |------------------------|------------------------|------------------------|------------------------|
E |------------------------|------------------------|------------------------|------------------------|




                                              SECOND GUITAR

   Q     Q     Q     Q      Q     Q     Q     Q      Q     Q     Q     Q      Q     Q     Q     Q
e |------------------------|------------------------|------------------------|------------------------|
B |------------7-----------|------------6-----------|------------7-----------|------------6-----------|
G |------6-----4-----6-----|------5-----------5-----|------6-----4-----6-----|------5-----------5-----|
D |5-----------------------|------------7-----------|5-----------------------|------------7-----------|
A |------------------------|5-----------------------|------------------------|5-----------------------|
E |------------------------|------------------------|------------------------|------------------------|


   H           Q     Q      Q     Q     Q     Q      Q     Q     Q     Q      Q     Q     H
e |------------9-----8-----|7-----9-----6-----7-----|5-----7-----4-----5-----|3-----2-----------------|
B |------------------------|------------------------|------------------------|------------------------|
G |------------------------|------------------------|------------------------|------------------------|
D |------------------------|------------------------|------------------------|------------------------|
A |------------------------|------------------------|------------------------|------------------------|
E |------------------------|------------------------|------------------------|------------------------|




                     FIRST GUITAR -- an octave down


   Q.    E Q   Q    H       E E E E  Q   E E Q   Q    Q   E E H
e |3---------------|----------------|----------------|----------------|
B |------3---------|--------4-------|----------------|----------------|
G |--------4-------|----------5-----|----7-4---------|----------------|
D |------------5---|6-----------6---|--------5-------|----------------|
A |----------------|--------------6-|5-----------5---|8---6-8-5-------|
E |----------------|----------------|----------------|----------------|


   Q   Q   Q   Q    Q   Q   Q   Q    Q   Q   Q   Q    E E E E H
e |----------------|----------------|----------------|----------------|
B |--------4---3---|2---3-------2---|----------------|----------------|
G |----------------|--------5-------|4---5---3---4---|2-3-1-2---------|
D |----------------|----------------|----------------|----------------|
A |4---5-----------|----------------|----------------|----------------|
E |----------------|----------------|----------------|----------------|

Login or Register to remove this ad.

9 comments on Shop

Brilliant! This song just

5

Brilliant! This song just oozes ambience.

I had forgotten the song, and

5

I had forgotten the song, and on the fifth note I laughed in recognition. :D Nice work. Did you break it down with a midi or just by ear? I imagine getting the specifics of the second half would be ear-wracking work.

A thought on one fingering,

e |------------------------|
B |------------6-----------|
G |------5-----2-----5-----|
D |------------------------|
A |5-----------------------|
E |------------------------| 

The 2 could be 7 on the D string, allowing for one hand placement throughout the measure. Of course that means "hopping" for the staccato, but it's doable.

I tab by ear. I put that

I tab by ear. I put that fingering like that, even though it's a little harder, just so it's playable with a pick :-) But I originally had it like you said.

its playable with a pick in

its playable with a pick in the way he said as well

Technically. But you have to

Technically. But you have to mute a string :-) I usually try to avoid that.

interesting

interesting

You don't think xxx26x is

You don't think xxx26x is easier to play with a pick than xx7x6x?

well, xx7x6x is easier for

well, xx7x6x is easier for me, but i only played that one measure

if anyone who wants to play this song reads the comments, they'll at least realize xx7x6x is an option and thats really all that matters though ^^

Well, I guess I can change it

Well, I guess I can change it since both commenters so far think it's easier. It's how I had it originally, too.