Ads

Link is Awake (Legend of Zelda: Link's Awakening) Guitar Tab

Submitted: Aug 07, 2009 by hslesperance (Last updated: Feb 21, 2011)

5
Average: 5 (1 vote)
Download | Listen
Game: Legend of Zelda: Link's Awakening
Composer(s): Kazumi Totaka, Minako Hamano, Kozue Ishikawa
Style: Transcription
Series: Legend of Zelda

AutoScroll: Slow | Medium | Fast
Link is Awake
The Legend of Zelda: Link's Awakening
Composed by Kazumi Totaka
Tabbed by hslesperance
7/13/09

Tuning: Half-Step Down


eb---12\--------------------------------14---------------------
Bb---15\------------------------------------------12-----------
Gb----------------------------------11-------------------------
Db------------------------------12-----------------------------
Ab--------------------------14----------------------------14---
Eb----------------------15----------------------------15-------

eb-------------------12----------12---------17----0------------
Bb-------12--14--15----------------------------------2---------
Gb------------------------------------14----------------2------
Db---12----------------------------------------------------4---
Ab---------------------------16--------------------------------
Eb-----------------------14------------------------------------

eb---------------------------10--------------------------------
Bb-------------------------------------------------------------
Gb-------------------------------------12--------------12--14--
Db---2--------------------0------------------------12----------
Ab------4--0-----------2-----------------------14--------------
Eb------------2--0--3----------------------15------------------

eb-------------------------------14----0-----------------------
Bb---12--14----------14-------------------2--------------------
Gb-------------------------------------------2-----------------
Db-------------------------16-------------------4--2-----------
Ab---------------16-----------------------------------4--0-----
Eb-----------14---------------------------------------------2--

\ - Slide down
Login or Register to remove this ad.