I saw the Wind Fish on Mount Tamaranch (SongeLeReveur Version) (Legend of Zelda: Link's Awakening) Bass/Guitar Tab

Submitted: Jul 08, 2010 by ForestMarth (Last updated: Sep 25, 2010)

5
Average: 5 (2 votes)
Download | Listen
Game: Legend of Zelda: Link's Awakening
Composer(s): Kazumi Totaka, Minako Hamano, Kozue Ishikawa
Style: Arrangement, Transcription
Series: Legend of Zelda

AutoScroll: Slow | Medium | Fast
The Legend of Zelda: Link's Awakening - I saw the Wind Fish on Mount Tamaranch

Based on compositions by : Minako Hamano, Kozue Ishikawa and Kazumi Totaka

Arranged by : SongeLeReveur

Tabbed by : ForestMarth & hslesperance

Platform : Game Boy


I dedicate this tab to hslesperance, who challenged me to do it :-D


I thank you very much hslesperance for having put the rhythm !!!!!
He added rhythm for the two main instruments playing "Tal Tal Heights".
Therefore, there's the rhythm for the folk guitar and the alto recorder.
hslesperance also corrected the errors of my tab :-)


I'm sorry but rhythm is not respected for the other instruments.
Don't hesitate to take this tab and put it rhythm !
Look at SongeLeReveur video to hear the rhythm.


This song is based on two songs from The Legend of Zelda: Link's Awakening.
These two songs are the "Ballad of the Wind Fish" and "Tal Tal Heights".
The structure of this arrangement is :
Beginning -> Tal Tal Heights
Middle -> (Transition) Ballad of the Wind Fish (Transition)
End -> Tal Tal Heights
Actually, Tal Tal Heights is the top of the Mount Tamaranch.
Now, everyone can understand the title of the song :)

There is a background sound from the beginning to the end of the arrangement.
I'm sorry but I didn't tab it (too hard for me!).

The synthesizer tab is clearly not perfect.
I tabbed in brackets what I would play if I had a synthesizer.
The main notes are not in brackets (these are the notes I'm sure they're right).
It's not easy to hear when the synthesizer changes of chord.
That's why I wrote [1], [2]... to show when these changes happen in the Electric Guitar 1 solo.




Folk Guitar (WITH rhythm)



     Dm                             G7                           
     E.  S S S E.  E  S E  S  S     E.  S S S E.  E  S E  S  S   
E||--1---1-x-1-1---1--1-1--1-(1)-|--1---1-x-1-1---1--1-1--1-(1)-|
B||--3---3-x-3-3---3--3-3--3-(3)-|--0---0-x-0-0---0--0-0--0-(0)-|
G||--2---2-x-2-2---2--2-2--2-(2)-|--0---0-x-0-0---0--0-0--0-(0)-|
D||--0---0-x-0-0---0--0-0--0-(0)-|--0---0-x-0-0---0--0-0--0-(0)-|
A||------------------------------|--2---2-x-2-2---2--2-2--2-(2)-|
E||------------------------------|--3---3-x-3-3---3--3-3--3-(3)-|


  Dm7                            G                            
  E.  S S S E.  E  S E  S  S     E.  S S S E.  E  S E  S  S   
--1---1-x-1-1---1--1-1--1-(1)-|--3---3-x-3-3---3--3-3--3-(3)-|
--1---1-x-1-1---1--1-1--1-(1)-|--3---3-x-3-3---3--3-3--3-(3)-|
--2---2-x-2-2---2--2-2--2-(2)-|--0---0-x-0-0---0--0-0--0-(0)-|
--0---0-x-0-0---0--0-0--0-(0)-|--0---0-x-0-0---0--0-0--0-(0)-|
------------------------------|--2---2-x-2-2---2--2-2--2-(2)-|
------------------------------|--3---3-x-3-3---3--3-3--3-(3)-|


  Dm                             G7                           
  E.  S S S E.  E  S E  S  S     E.  S S S E.  E  S E  S  S   
--1---1-x-1-1---1--1-1--1-(1)-|--1---1-x-1-1---1--1-1--1-(1)-|
--3---3-x-3-3---3--3-3--3-(3)-|--0---0-x-0-0---0--0-0--0-(0)-|
--2---2-x-2-2---2--2-2--2-(2)-|--0---0-x-0-0---0--0-0--0-(0)-|
--0---0-x-0-0---0--0-0--0-(0)-|--0---0-x-0-0---0--0-0--0-(0)-|
------------------------------|--2---2-x-2-2---2--2-2--2-(2)-|
------------------------------|--3---3-x-3-3---3--3-3--3-(3)-|


  Dm7                            G                            
  E.  S S S E.  E  S E  S  S     E.  S S S E.  E  S E  S  S   
--1---1-x-1-1---1--1-1--1-(1)-|--3---3-x-3-3---3--3-3--3-(3)-|
--1---1-x-1-1---1--1-1--1-(1)-|--3---3-x-3-3---3--3-3--3-(3)-|
--2---2-x-2-2---2--2-2--2-(2)-|--0---0-x-0-0---0--0-0--0-(0)-|
--0---0-x-0-0---0--0-0--0-(0)-|--0---0-x-0-0---0--0-0--0-(0)-|
------------------------------|--2---2-x-2-2---2--2-2--2-(2)-|
------------------------------|--3---3-x-3-3---3--3-3--3-(3)-|


  A#                             Cadd9                          
  E.  S S S E.  E  S E  S  S     E.    S S S E.  E  S E  S  S   
------------------------------|--0-----0-x-0-0---0--0-0--0-(0)-|
--3---3-x-3-3---3--3-3--3-(3)-|--3-----3-x-3-3---3--3-3--3-(3)-|
--3---3-x-3-3---3--3-3--3-(3)-|--0-----0-x-0-0---0--0-0--0-(0)-|
--3---3-x-3-3---3--3-3--3-(3)-|--2-----2-x-2-2---2--2-2--2-(2)-|
--1---1-x-1-1---1--1-1--1-(1)-|--3-----3-x-3-3---3--3-3--3-(3)-|
------------------------------|--------------------------------|


  F                              A7                           
  E.  S S S E.  E  S E  S  S     E.  S S S E.  E  S E  S  S   
--1---1-x-1-1---1--1-1--1-(1)-|--0---0-x-0-0---0--0-0--0-(0)-|
--1---1-x-1-1---1--1-1--1-(1)-|--2---2-x-2-2---2--2-2--2-(2)-|
--2---2-x-2-2---2--2-2--2-(2)-|--0---0-x-0-0---0--0-0--0-(0)-|
--3---3-x-3-3---3--3-3--3-(3)-|--2---2-x-2-2---2--2-2--2-(2)-|
--3---3-x-3-3---3--3-3--3-(3)-|--0---0-x-0-0---0--0-0--0-(0)-|
--1---1-x-1-1---1--1-1--1-(1)-|------------------------------|


  Dm                             G7                           
  E.  S S S E.  E  S E  S  S     E.  S S S E.  E  S E  S  S   
--1---1-x-1-1---1--1-1--1-(1)-|--1---1-x-1-1---1--1-1--1-(1)-|
--3---3-x-3-3---3--3-3--3-(3)-|--0---0-x-0-0---0--0-0--0-(0)-|
--2---2-x-2-2---2--2-2--2-(2)-|--0---0-x-0-0---0--0-0--0-(0)-|
--0---0-x-0-0---0--0-0--0-(0)-|--0---0-x-0-0---0--0-0--0-(0)-|
------------------------------|--2---2-x-2-2---2--2-2--2-(2)-|
------------------------------|--3---3-x-3-3---3--3-3--3-(3)-|


  Dm7                            D5                           
  E.  S S S E.  E  S E  S  S     E.  S S S E.  E  S E  S  S   
--1---1-x-1-1---1--1-1--1-(1)-|--5---5-x-5-5---5--5-5--5-(5)-|
--1---1-x-1-1---1--1-1--1-(1)-|--3---3-x-3-3---3--3-3--3-(3)-|
--2---2-x-2-2---2--2-2--2-(2)-|--2---2-x-2-2---2--2-2--2-(2)-|
--0---0-x-0-0---0--0-0--0-(0)-|--0---0-x-0-0---0--0-0--0-(0)-|
------------------------------|------------------------------|
------------------------------|------------------------------|


  D#                              A7                   Cadd9             
                                                       ^                 
  E.  S S S E.  E  S E  S  S      W                    W                 
------------------------------|--(0)----------------|--0----------------|
--8---8-x-8-8---8--8-8--8-(8)-|---2-----------------|--3----------------|
--8---8-x-8-8---8--8-8--8-(8)-|---0-----------------|--0----------------|
--8---8-x-8-8---8--8-8--8-(8)-|---2-----------------|--2----------------|
--6---6-x-6-6---6--6-6--6-(6)-|---0-----------------|--3----------------|
------------------------------|---------------------|-------------------|


  Dsus2                                   Dmadd9                                
  ^                                       ^                                     
  W                   W                   W                   W                 
--0----------------|-------------------|--0----------------|-------------------|
--3----------------|-------------------|--6----------------|-------------------|
--2----------------|-------------------|--7----------------|-------------------|
--0----------------|-------------------|--7----------------|-------------------|
-------------------|-------------------|--5----------------|-------------------|
-------------------|-------------------|-------------------|-------------------|


  Dmadd9                                  Dsus2                                 
  ^                                       ^                                     
  W                   W                   W                   W                 
--0----------------|-------------------|--0----------------|-------------------|
--6----------------|-------------------|--3----------------|-------------------|
--7----------------|-------------------|--2----------------|-------------------|
--7----------------|-------------------|--0----------------|-------------------|
--5----------------|-------------------|-------------------|-------------------|
-------------------|-------------------|-------------------|-------------------|


                                A7                              
  W                   H         S   S   S   S   S   S   S   S   
-------------------|-----------(0)-(0)-(0)-(0)-(0)-(0)-(0)-(0)-|
-------------------|------------2---2---2---2---2---2---2---2--|
-------------------|------------0---0---0---0---0---0---0---0--|
-------------------|------------2---2---2---2---2---2---2---2--|
-------------------|------------0---0---0---0---0---0---0---0--|
-------------------|-------------------------------------------|


   Em                                          
   E.    S  S  S   E.    E    S   E    S   S   
--(0)---(0)---(0)-(0)---(0)--(0)-(0)--(0)-(0)-|
---0-----0--x--0---0-----0----0---0----0--(0)-|
---0-----0--x--0---0-----0----0---0----0--(0)-|
---2-----2--x--2---2-----2----2---2----2--(2)-|
---2-----2--x--2---2-----2----2---2----2--(2)-|
---0-----0--x--0---0-----0----0---0----0--(0)-|


   A7                                          
   E.    S  S  S   E.    E    S   E    S   S   
--(0)---(0)---(0)-(0)---(0)--(0)-(0)--(0)-(0)-|
---2-----2--x--2---2-----2----2---2----2--(2)-|
---0-----0--x--0---0-----0----0---0----0--(0)-|
---2-----2--x--2---2-----2----2---2----2--(2)-|
---0-----0--x--0---0-----0----0---0----0--(0)-|
----------------------------------------------|


   Em             Emadd9                
   E.    S  S  S  E.     E  S E  S  S   
--(0)---(0)---(0)-2------2--2-2--2-(2)-|
---0-----0--x--0--0------0--0-0--0-(0)-|
---0-----0--x--0--0------0--0-0--0-(0)-|
---2-----2--x--2--2------2--2-2--2-(2)-|
---2-----2--x--2--2------2--2-2--2-(2)-|
---0-----0--x--0--0------0--0-0--0-(0)-|


   A7                                          
   E.    S  S  S   E.    E    S   E    S   S   
--(0)---(0)---(0)-(0)---(0)--(0)-(0)--(0)-(0)-|
---2-----2--x--2---2-----2----2---2----2--(2)-|
---0-----0--x--0---0-----0----0---0----0--(0)-|
---2-----2--x--2---2-----2----2---2----2--(2)-|
---0-----0--x--0---0-----0----0---0----0--(0)-|
----------------------------------------------|


   Em                                          
   E.    S  S  S   E.    E    S   E    S   S   
--(0)---(0)---(0)-(0)---(0)--(0)-(0)--(0)-(0)-|
---0-----0--x--0---0-----0----0---0----0--(0)-|
---0-----0--x--0---0-----0----0---0----0--(0)-|
---2-----2--x--2---2-----2----2---2----2--(2)-|
---2-----2--x--2---2-----2----2---2----2--(2)-|
---0-----0--x--0---0-----0----0---0----0--(0)-|


   A7                                          
   E.    S  S  S   E.    E    S   E    S   S   
--(0)---(0)---(0)-(0)---(0)--(0)-(0)--(0)-(0)-|
---2-----2--x--2---2-----2----2---2----2--(2)-|
---0-----0--x--0---0-----0----0---0----0--(0)-|
---2-----2--x--2---2-----2----2---2----2--(2)-|
---0-----0--x--0---0-----0----0---0----0--(0)-|
----------------------------------------------|


   Em             Em9                
   E.    S  S  S  E.  E  S E  S  S   
--(0)---(0)---(0)-2---2--2-2--2-(2)-|
---0-----0--x--0--3---3--3-3--3-(3)-|
---0-----0--x--0--0---0--0-0--0-(0)-|
---2-----2--x--2--2---2--2-2--2-(2)-|
---2-----2--x--2--2---2--2-2--2-(2)-|
---0-----0--x--0--0---0--0-0--0-(0)-|


   A7                                          
   E.    S  S  S   E.    E    S   E    S   S   
--(0)---(0)---(0)-(0)---(0)--(0)-(0)--(0)-(0)-|
---2-----2--x--2---2-----2----2---2----2--(2)-|
---0-----0--x--0---0-----0----0---0----0--(0)-|
---2-----2--x--2---2-----2----2---2----2--(2)-|
---0-----0--x--0---0-----0----0---0----0--(0)-|
----------------------------------------------|


  Cadd9                              D                            
  E.    S S  S  E.  E  S E  S  S     E.  S S S E.  E  S E  S  S   
--0-----0-x-(0)-0---0--0-0--0-(0)-|--2---2-x-2-2---2--2-2--2-(2)-|
--3-----3-x-(3)-3---3--3-3--3-(3)-|--3---3-x-3-3---3--3-3--3-(3)-|
--0-----0-x-(0)-0---0--0-0--0-(0)-|--2---2-x-2-2---2--2-2--2-(2)-|
--2-----2-x-(2)-2---2--2-2--2-(2)-|--0---0-x-0-0---0--0-0--0-(0)-|
--3-----3-x-(3)-3---3--3-3--3-(3)-|------------------------------|
----------------------------------|------------------------------|


   Asus2                                       
   E.    S  S  S   E.    E    S   E    S   S   
--(0)---(0)---(0)-(0)---(0)--(0)-(0)--(0)-(0)-|
---0-----0--x--0---0-----0----0---0----0--(0)-|
---2-----2--x--2---2-----2----2---2----2--(2)-|
---2-----2--x--2---2-----2----2---2----2--(2)-|
---0-----0--x--0---0-----0----0---0----0--(0)-|
----------------------------------------------|


   A                                               C                            
   E.    S   S   S   E.    E    S   E    S   S     E.  S S S E.  E  S E  S  S   
--(0)---(0)-(0)-(0)-(0)---(0)--(0)-(0)--(0)-(0)-|------------------------------|
---2-----2---2---2---2-----2----2---2----2--(2)-|--1---1-x-1-1---1--1-1--1-(1)-|
---2-----2---2---2---2-----2----2---2----2--(2)-|--0---0-x-0-0---0--0-0--0-(0)-|
---2-----2---2---2---2-----2----2---2----2--(2)-|--2---2-x-2-2---2--2-2--2-(2)-|
---0-----0---0---0---0-----0----0---0----0--(0)-|--3---3-x-3-3---3--3-3--3-(3)-|
------------------------------------------------|------------------------------|


  D5                   Em                                          
  W                    E.    S  S  S   E.    E    S   E    S   S   
-------------------|--(0)---(0)---(0)-(0)---(0)--(0)-(0)--(0)-(0)-|
--3----------------|---0-----0--x--0---0-----0----0---0----0--(0)-|
--2----------------|---0-----0--x--0---0-----0----0---0----0--(0)-|
--0----------------|---2-----2--x--2---2-----2----2---2----2--(2)-|
-------------------|---2-----2--x--2---2-----2----2---2----2--(2)-|
-------------------|---0-----0--x--0---0-----0----0---0----0--(0)-|


   E.    S  S  S   E.    E    S   E    S   S   
--(0)---(0)---(0)-(0)---(0)--(0)-(0)--(0)-(0)-|
---0-----0--x--0---0-----0----0---0----0--(0)-|
---0-----0--x--0---0-----0----0---0----0--(0)-|
---2-----2--x--2---2-----2----2---2----2--(2)-|
---2-----2--x--2---2-----2----2---2----2--(2)-|
---0-----0--x--0---0-----0----0---0----0--(0)-|


   E.    S  S  S   E.    E    S   E    S   S   
--(0)---(0)---(0)-(0)---(0)--(0)-(0)--(0)-(0)-|
---0-----0--x--0---0-----0----0---0----0--(0)-|
---0-----0--x--0---0-----0----0---0----0--(0)-|
---2-----2--x--2---2-----2----2---2----2--(2)-|
---2-----2--x--2---2-----2----2---2----2--(2)-|
---0-----0--x--0---0-----0----0---0----0--(0)-|


   A7                                          
   E.    S  S  S   E.    E    S   E    S   S   
--(0)---(0)---(0)-(0)---(0)--(0)-(0)--(0)-(0)-|
---2-----2--x--2---2-----2----2---2----2--(2)-|
---0-----0--x--0---0-----0----0---0----0--(0)-|
---2-----2--x--2---2-----2----2---2----2--(2)-|
---0-----0--x--0---0-----0----0---0----0--(0)-|
----------------------------------------------|


   Em                                          
   E.    S  S  S   E.    E    S   E    S   S   
--(0)---(0)---(0)-(0)---(0)--(0)-(0)--(0)-(0)-|
---0-----0--x--0---0-----0----0---0----0--(0)-|
---0-----0--x--0---0-----0----0---0----0--(0)-|
---2-----2--x--2---2-----2----2---2----2--(2)-|
---2-----2--x--2---2-----2----2---2----2--(2)-|
---0-----0--x--0---0-----0----0---0----0--(0)-|


   A7                                            Cadd9             
   E.    S  S  S   E.    E    S   E    S   S     W                 
--(0)---(0)---(0)-(0)---(0)--(0)-(0)--(0)-(0)-|--0----------------|
---2-----2--x--2---2-----2----2---2----2--(2)-|--3----------------|
---0-----0--x--0---0-----0----0---0----0--(0)-|--0----------------|
---2-----2--x--2---2-----2----2---2----2--(2)-|--2----------------|
---0-----0--x--0---0-----0----0---0----0--(0)-|--3----------------|
----------------------------------------------|-------------------|


  D                   A7                 
  ^                   v                  
  W                   W                  
--2----------------|--0----------------||
--3----------------|--2----------------||
--2----------------|--0----------------||
--0----------------|--2----------------||
-------------------|--0----------------||
-------------------|-------------------||




Alto Recorder (WITH rhythm)



     W                   W                   W                 
E||-------------------|-------------------|-------------------|
B||-------------------|-------------------|-------------------|
G||-------------------|-------------------|-------------------|
D||-------------------|-------------------|-------------------|
A||-------------------|-------------------|-------------------|
E||-------------------|-------------------|-------------------|


  W                   Q    Q    E  E  S S  S S     Q.      S T  T  E.   E.  E   
-------------------|---------------------------|-------------7h-8p-7-----------|
-------------------|-------------------------8-|--10-------L-----------10---8--|
-------------------|--7------------7--7-9-10---|-------------------------------|
-------------------|-------7----L--------------|-------------------------------|
-------------------|---------------------------|-------------------------------|
-------------------|---------------------------|-------------------------------|


   E.  S  H        Q       Q    E  E   E  E   E  E   
---------10-------------|---------------------------|
--10--------------------|------------------------8--|
-------7----------------|-------------10--9--10-----|
------------------------|----------7----------------|
------------------------|---------------------------|
------------------------|---------------------------|


   E  S  S  Q.      E  E  E     E   S S Q.     E   E  E   
-----------10----------------|----------8----------------|
--10----10---------10--8--6--|--8-----8--------8---------|
------7----------------------|--------------------10--9--|
-----------------------------|-----10--------------------|
-----------------------------|---------------------------|
-----------------------------|---------------------------|


   E.  S Q.     T  T  S E  E     H        H           Q    Q    E  E  S S S S  
------------------------------|--------------------|--------------------------|
------------------------------|--------------------|----------------------6-8-|
--10--------------------------|--------------------|--7------------7--7-9-----|
-------7-7------5h-7p-5----5--|--7-----------------|-------7----L-------------|
------------------------8-----|--------------------|--------------------------|
------------------------------|--------------------|--------------------------|


   Q.      S T  T  E.   E.  E     E.  S  Q.      E  E  E   
-------------6h-8p-6-----------|--------------------------|
--10-------L-----------10---8--|--6-----10----------------|
-------------------------------|------7---------10--7-----|
-------------------------------|-----------------------7--|
-------------------------------|--------------------------|
-------------------------------|--------------------------|


   Q.     E  E  E   E  E      E  S  S Q.     Q    E      E.  E.  E  E.  E.  E   
--------------------------|-----------6------8----6--|-------------------------|
-----------------------8--|--10--8-10----------------|--10-------6--8---6------|
--10------9--7--9--10-----|--------------------------|-------9--------------9--|
--------------------------|--------------------------|-------------------------|
--------------------------|--------------------------|-------------------------|
--------------------------|--------------------------|-------------------------|


  W                   W                   W                   W                 
-------------------|-------------------|-------------------|-------------------|
-------------------|-------------------|-------------------|-------------------|
--7----------------|-------------------|-------------------|-------------------|
-------------------|-------------------|-------------------|-------------------|
-------------------|-------------------|-------------------|-------------------|
-------------------|-------------------|-------------------|-------------------|


  W                   W                   W                   W                 
-------------------|-------------------|-------------------|-------------------|
-------------------|-------------------|-------------------|-------------------|
-------------------|-------------------|-------------------|-------------------|
-------------------|-------------------|-------------------|-------------------|
-------------------|-------------------|-------------------|-------------------|
-------------------|-------------------|-------------------|-------------------|


  W                   W                   W                   W                 
-------------------|-------------------|-------------------|-------------------|
-------------------|-------------------|-------------------|-------------------|
-------------------|-------------------|-------------------|-------------------|
-------------------|-------------------|-------------------|-------------------|
-------------------|-------------------|-------------------|-------------------|
-------------------|-------------------|-------------------|-------------------|


  W                   W                   W                   W                 
-------------------|-------------------|-------------------|-------------------|
-------------------|-------------------|-------------------|-------------------|
-------------------|-------------------|-------------------|-------------------|
-------------------|-------------------|-------------------|-------------------|
-------------------|-------------------|-------------------|-------------------|
-------------------|-------------------|-------------------|-------------------|


  W                   W                   W                   W                 
-------------------|-------------------|-------------------|-------------------|
-------------------|-------------------|-------------------|-------------------|
-------------------|-------------------|-------------------|-------------------|
-------------------|-------------------|-------------------|-------------------|
-------------------|-------------------|-------------------|-------------------|
-------------------|-------------------|-------------------|-------------------|


  W                   W                   W                   W                 
-------------------|-------------------|-------------------|-------------------|
-------------------|-------------------|-------------------|-------------------|
-------------------|-------------------|-------------------|-------------------|
-------------------|-------------------|-------------------|-------------------|
-------------------|-------------------|-------------------|-------------------|
-------------------|-------------------|-------------------|-------------------|


  Q    Q    Q    E  S S     Q    Q    Q    Q       W                 
-------------------------|----------------------|-------------------|
-------------------------|----------------------|-------------------|
----------------------4h-|--9-------------------|-------------------|
-------------------------|----------------------|-------------------|
-------------------------|----------------------|-------------------|
-------------------------|----------------------|-------------------|


  Q    Q    E  E  S  S  S  S     Q.      S T   T  E.   E.   E   
-----------------------------|-------------9h-10p-9------------|
--------------------------10-|--12-------L------------12---10--|
--9------------9--9-11-12----|---------------------------------|
-------9----L----------------|---------------------------------|
-----------------------------|---------------------------------|
-----------------------------|---------------------------------|


   Q    H        Q       Q    E  E   E   E   E   E   
----------------------|-----------------------------|
--12------------------|-------------------------10--|
--------9-------------|-------------12--11--12------|
----------------------|----------9------------------|
----------------------|-----------------------------|
----------------------|-----------------------------|


   Q.     Q.      E.   T   T      H         Q.     E      W                  
------------------------------|-----------------------|--------------------||
--12-------------12---10h-12h-|--10-------------------|--------------------||
----------9-------------------|-----------------------|--------------------||
------------------------------|------------12------9--|--11----------------||
------------------------------|-----------------------|--------------------||
------------------------------|-----------------------|--------------------||




Electric Guitar 1 (WITHOUT rhythm)



     PM   PM  PM                                                                
             [1]
E||--------------------------------------------------------------------------
B||---------------------------------------------------------6b---------------
G||--------------7p----5------7pbr--------7p----5-----------------5s----7----
D||----------------------------------------------------7---------------------
A||--3----3s--5--------------------------------------------------------------
E||--------------------------------------------------------------------------


       
------------8----------7brb-----------------------12pbr----10----------
--6--------------------------------------------------------------12----
-------7---------------------------------------------------------------
-----------------------------------------------------------------------
-----------------------------------------------------------------------
-----------------------------------------------------------------------


        
------------------------------12b----12----10-----------------------------
---------------------------------------------------12---------------------
--10brb--------------------------------------------------10s----7---------
--------------------------------------------------------------------------
--------------------------------------------------------------------------
--------------------------------------------------------------------------


              
---------------------------------------------------------------------
---------------------------------------------------------------------
-------5h----7p----5-------------------------------------------------
--------------------------5b-----------------------3s----6brb--------
---------------------------------------------------------------------
---------------------------------------------------------------------


                   [2]                                     [3]
----------------------------------------------------------------
----------------------------------------------------------------
----------------------------------------5g7----9----9s----10----
--0-------------------------------------------------------------
----------------------------------------------------------------
----------------------------------------------------------------


         
-------------------------------------------------------------------------
--------------------------------------------3s------5----5s----7---------
--5g7----9----9s----10------9----7s----2----3s------5----5s----7---------
-------------------------------------------------------------------------
-------------------------------------------------------------------------
-------------------------------------------------------------------------


                     [4]
----------------------------------------------------
-----------------------------------6----6s----11----
--5g7----9----9s----10------3g5---------------------
----------------------------------------------------
----------------------------------------------------
----------------------------------------------------


                     [5]            [6]
----------------------------/12----10\----5----5----
--10s----8----8s----10------------------------------
----------------------------------------------------
----------------------------------------------------
----------------------------------------------------
----------------------------------------------------


         [7]                                   
--5s----6----15s----13------12s----10----------------
-----------------------------------------10----8s----
-----------------------------------------------------
-----------------------------------------------------
-----------------------------------------------------
-----------------------------------------------------


  [8]                                            [9]
--------10---------------------------------------------
--10----------10s----11------11----11s----13-----------
------------------------------------------------6g8----
-------------------------------------------------------
-------------------------------------------------------
-------------------------------------------------------


                                  [10]        [11]
-------8----8s----10-------------10----5s----9----
--8---------8s----10------------------------------
--------------------------/10---------------------
--------------------------------------------------
--------------------------------------------------
--------------------------------------------------


        
--18S----(17)----17------------------------------------------------------
-------------------------------------------------7s----9----12s----14----
-------------------------------------------------7s----9----12s----14----
-------------------------------------------------7s----9-----------------
-------------------------------------------------------------------------
-------------------------------------------------------------------------


        
-----------------------------------------------------
--15s----12-----------------9s----12----12s----14----
--15s----12----7s----9------9s----12----12s----14----
---------------7s----9------9s----12----12s----14----
-----------------------------------------------------
-----------------------------------------------------


         
-----------------------------------------------------------------------------
--14s----12-----------------3s----5----5s----7------7s----2------------------
--14s----12----7s----9------3s----5----5s----7------7s----2-----------(2)----
--14s----12----7s----9------3s----5----5s----7------7s----2----(2)-----------
-----------------------------------------------------------------------------
-----------------------------------------------------------------------------


        
----------------------------------------------------------
---------(2)----------------------------------(2)---------
----------------(2)-------------(2)-----------------------
--(2)------------------(2)-------------(2)----------------
----------------------------------------------------------
----------------------------------------------------------


                                                       
------------------------|
--2s----5----5s----7----|
--2s----5----5s----7----|
--2s----5----5s----7----|
------------------------|
------------------------|




Electric Guitar 2 (WITHOUT rhythm)



          
E||-------------------------------------------------------------------------
B||--------------------------------------------------------7----8br---------
G||--9b-----------------------9pbr----7h--9---------5g7---------------------
D||------------------------------------------7------------------------------
A||-------------------------------------------------------------------------
E||-------------------------------------------------------------------------


        
--10b--------10----7------9-----------12----15----
--------------------------------------------------
-------------------------------/12----------------
--------------------------------------------------
--------------------------------------------------
--------------------------------------------------


        
--14br----------------14------15----19----14----15----
----------15----15------------------------------------
------------------------------------------------------
------------------------------------------------------
------------------------------------------------------
------------------------------------------------------


         
-----------------------------------------------(15)----
--------14------------------------10s----12------------
--16----------11----14------12-------------------------
-------------------------------------------------------
-------------------------------------------------------
-------------------------------------------------------


         
-------------------------------------------------------------------------
--------------12-----------10brb-----------------------------------------
--12s----9---------------------------------------------12----9-----------
-------------------------------------------------------------------------
------------------------------------------------------------------(7)----
-------------------------------------------------------------------------


        
----------------------------------------------------------------------------
-------------------------------------------0----------------7----8----10----
---------------------------------7----9---------9------9--------------------
-----------------(7)----(9)-------------------------------------------------
--(9)----(10)---------------------------------------------------------------
----------------------------------------------------------------------------


        
----------------------------9h----10-----------------------------12----
--10b-----------------------------------12------10----12---------------
------------------------------------------------------------9----------
-----------------------------------------------------------------------
-----------------------------------------------------------------------
-----------------------------------------------------------------------


        
--12---------------12-----------------12----12------12s----15----15----15----
--------12-----------------12---------12----12------12s----15----15----15----
--------------9------------------9-----9-----9-------9s----12----12----12----
-----------------------------------------------------------------------------
-----------------------------------------------------------------------------
-----------------------------------------------------------------------------


         
--15s----17----17----17b-----------------------------------
--15s----17----17--------------17s----15----(15)----15b----
--12s----14----14------------------------------------------
-----------------------------------------------------------
-----------------------------------------------------------
-----------------------------------------------------------


        
--------15---------------------------------------------------------------
--12---------------------------------------------------------------------
--------------12s----11-----------9p----7--------------------------------
-----------------------------9---------------9------7s----5--------------
---------------------------------------------------------------7---------
-------------------------------------------------------------------------


  ^    ^     ^             ^                                                  
       
--5----5-----6s----5------(5)-----------------------------------------------
--7----5-----8s----7------(5)-----------------------------------------------
--7----6-----8s----7------(6)~---------------0-------------------0h----2----
--5----5~-----------------(5)-----0h----2-----------2p----(0)---------------
----------------------------------------------------------------------------
----------------------------------------------------------------------------


                                                         
-----------------------------|
----------------0h--2--------|
-----------------------0~----|
---------(2)-----------------|
--(0)------------------------|
-----------------------------|




Bass (WITHOUT rhythm)



          
G||---------------------------------------------------------------------
D||---------------------------------------------------------------------
A||---------------------------------------------------------------------
E||--0----0----0----3S------5----5----5----5------(5)----0----0----0----


       
----------------------------------------------------------------------
----------------------------------------------------------------------
----------------------------------------------------------------------
--5----5----5----(5)\------0----0----0----3S------5----5----5----5----


     
--------------------------------------------------------------------
--------------------------------------------------------------------
-----------------------------------3----3------3----3----5----x--5--
--0----0----0----0------5----x--5-----------------------------------


       
---------------------------------------------------------------------
---------------------------------------------------------------------
--3----(5)------------------------------------------------------2----
--------------5----x--5----3----5----3----5------3----5----5---------


     
---------------------------------------------------
---------------------------------------------------
--3----x--3--5-----------(2)S----(7)----7----x--7--
------------------0--------------------------------


         
-----------------------------------------------------------------------
-----------------------------------------------------------------------
--6g7------------------------7----7----7----5------7-------------------
-------5----5----5----(7)-------------------------------5----5----5----


                                                                  
---------------------|
---------------------|
--3----5-------------|
------------5--------|




Synthesizer (WITHOUT rhythm)



     [1]                 
E||-----------------------------------------------------------
B||-----------------------------------------------------------
G||-----------------------------------------------------------
D||-----------------------------------------------------------
A||--(5)------------------L-----------------------------------
E||-----------------------------------------------------------


 [2]                [3]                 [4]
-----------------------------------------------------------
-----------------------------------------------------------
--0------------------2------------------(2)----------------
-----------------------------------------------------------
-----------------------------------------3-----------------
-----------------------------------------------------------


  [5]                  [6]                  [7]
---------------------------------------------------------------
---------------------------------------------------------------
--(2)------------------(3)------------------(2)----------------
-----------------------(0)------------------(0)----------------
---0-----------------------------------------------------------
------------------------3--------------------1-----------------


  [8]                  [9]                  [10]
---------------------------------------------------------------
---1-----------------------------------------------------------
--(0)-------------------2--------------------3-----------------
-----------------------(3)------------------(0)----------------
--(1)------------------(0)------------------(1)----------------
---------------------------------------------------------------


  [11]                                                                           
---------------------|
---5-----------------|
---------------------|
--(5)----------------|
--(4)----------------|
--(6)----------------|




Duration Legend
---------------
W - whole
H - half
Q - quarter
E - 8th
S - 16th
T - 32nd
X - 64th
. - note dotted
|-n-|  - n-tuplets




Tablature Legend
----------------
L - tied note
x - dead note
g - grace note
(n) - ghost note
> - accentuded note
NH - natural harmonic
AH - artificial harmonic
TH - tapped harmonic
SH - semi harmonic
PH - pitch harmonic
h - hammer on
p - pull off
b - bend
br - bendRelease
pb - preBend
pbr - preBendRelease
brb - bendReleaseBend
\n/ - tremolo bar dip
\n - tremolo bar dive
-/n - tremolo bar Release up
/n\ - tremolo bar inverted dip
/n - tremolo bar return
-\n - tremolo bar Release down
S - shift slide
s - legato slide
/ -  slide into from below or out of upwards
\ -  slide into from above or out of downwards
~ - vibrato
W - wide vibrato
tr - trill
TP - tremolo picking
T - tapping
S - slap
P - pop
< - fade in
^ - brush up
v - brush down
PM - palm mute
Login or Register to remove this ad.

2 comments on I saw the Wind Fish on Mount Tamaranch (SongeLeReveur Version)

...

5

You did well on this!! :)

Thanks !!! :-)

Thanks !!! :-)