The Ghost's House (Legend of Zelda: Link's Awakening) Guitar Tab

Submitted: Aug 07, 2009 by hslesperance (Last updated: Feb 21, 2011)

0
Download | Listen
Game: Legend of Zelda: Link's Awakening
Composer(s): Kazumi Totaka, Minako Hamano, Kozue Ishikawa
Style: 2 or more instruments, Transcription
Series: Legend of Zelda

AutoScroll: Slow | Medium | Fast
Ghost's House
The Legend of Zelda: Link's Awakening
Composed by Kazumi Totaka
Tabbed by hslesperance
7/13/09

Standard Tuning


Guitar 1

e------------------------------------------------------------
B---15----------------------------------------15-------------
G-----------------------14------------16--17-----------------
D-------------17----------------------------------------17---
A------------------------------------------------------------
E------------------------------------------------------------

e-------------------------------------17--------15----17-----
B-------------------------------15---------------------------
G---14------------16--17--16---------------------------------
D------------------------------------------------------------
A------------------------------------------------------------
E------------------------------------------------------------

e---15-------------------------------------------------------
B---------15----------------------------------------15--17---
G---------------17--16--14------------------16--17-----------
D------------------------------------------------------------
A------------------------------------------------------------
E------------------------------------------------------------

e------------------------------------------------------------
B-------------------------------17--15-----------------------
G---------------------------14-------------------------------
D---17--------16------------------------------16--------17---
A------------------------------------------------------------
E------------------------------------------------------------

e------------------------------------------------------------
B------------------------------------------------------------
G-----------------------16------------14---------------------
D---17--16--14----17------------------------17----14---------
A-------------------------------------------------------17---
E------------------------------------------------------------


Guitar 2

e---------------17-17-19-19--------------------19-19-20-20---
B----------------------------------------17-17---------------
G---------19-19----------------------------------------------
D---17-17--------------------------17-17---------------------
A------------------------------------------------------------
E------------------------------------------------------------

e---------------17-17-19-19--------------------19-19-20-20---
B----------------------------------------17-17---------------
G---------19-19----------------------------------------------
D---17-17--------------------------17-17---------------------
A------------------------------------------------------------
E------------------------------------------------------------

e---------------17-17-19-19--------------------17-17-18-18---
B------------------------------------------------------------
G---------19-19--------------------------18-18---------------
D---17-17--------------------------17-17---------------------
A------------------------------------------------------------
E------------------------------------------------------------

e-------------19-19-20-20------------------------------------
B-------17-17------------------------------------18-18-17-17-
G------------------------------------16-16-19-19-------------
D-19-19------------------------18-18-------------------------
A------------------------------------------------------------
E------------------------------------------------------------

e---------------------15-15--------------------14-14-17-17---
B---------------17-17--------------------16-16---------------
G---------18-18--------------------17-17---------------------
D---19-19----------------------------------------------------
A------------------------------------------------------------
E------------------------------------------------------------

e---------------14-14-17-17--------------------14-14-15-15---
B---------15-15--------------------------15-15---------------
G---16-16--------------------------16-16---------------------
D------------------------------------------------------------
A------------------------------------------------------------
E------------------------------------------------------------

e---------------12-12-15-15--------------------12-12-15-15---
B---------13-13--------------------------12-12---------------
G---14-14--------------------------14-14---------------------
D------------------------------------------------------------
A------------------------------------------------------------
E------------------------------------------------------------

e---------------14-14-------------------12-12----------------
B---------15-15-------15-15-------14-14-------14-14----------
G---16-16-------------------15-15----------------------------
D------------------------------------------------------------
A------------------------------------------------------------
E------------------------------------------------------------

e---------------12-12-------------------11-11----------------
B---------13-13-------13-13-------13-13-------13-13----------
G---14-14-------------------14-14----------------------------
D------------------------------------------------------------
A------------------------------------------------------------
E------------------------------------------------------------
Login or Register to remove this ad.