Animal Village (Legend of Zelda: Link's Awakening) Guitar Tab

Submitted: Jan 21, 2010 by LTRobson

0
Download | Listen
Game: Legend of Zelda: Link's Awakening
Composer(s): Kazumi Totaka, Minako Hamano, Kozue Ishikawa
Style: Arrangement, Fingerstyle
Series: Legend of Zelda

AutoScroll: Slow | Medium | Fast
The Legend Of Zelda: Link's Awakening - Animal Village (Game Boy)
Simple solo guitar arrangement
Tabbed by LTRobson Jan 2010

Standard tuning

|----------------------------------------------------------
|-------------0-1-3----/8-3------------------0-1-3----/8-3-
|-0-------0h2--------------------0-------0h2---------------
|-----0------------------------------0---------------------
|----------------------------------------------------------
|-3-------3-------3-------3------3-------3-------3-------3-

|-------------0-1-3----/8-3------------------0-1-3----/8-3-
|-1-------1h3--------------------1-------1h3---------------
|-----0------------------------------0---------------------
|----------------------------------------------------------
|-3-------3-------3-------3------3-------3-------3-------3-
|----------------------------------------------------------
Login or Register to remove this ad.

2 comments on Animal Village

Or you could put a capo on 3,

Or you could put a capo on 3, play the bass with open strings, and move any notes that were below a 3 down a string :-)

That works nicely, thanks

That works nicely, thanks auri.